Red - Feed The Machine tab

Song: Feed the Machine
Band: Red
Album: Until We Have Faces
Tuning: Drop A (AEADF#B)

This is a very heavy song, so feel free to change to single notes on the lowest A(6th) 
string into power chords when you feel necessary! Also, I added
stress marks only on the outro because I was too lazy to do the rest ;). Final note, a 
second guitar is included only during the turn arounds and the  outro because there are 
two very distinct guitar parts. That's it, enjoy!

Key: . Palm mute     p pull off     ^ strum w/ more stress

       b (bend)indicated fret hit, bend up to next indicated fret

       rb (release bend) note is hit while bending to indicated fret then
       released to indicated fret

Intro: Muted
|--------------------------------|--------------------------------|
|--------------------------------|--------------------------------|
|--------------------------------|--------------------------------|
|--------------------------------|--------------------------------|
|---------5----------------------|---------5----------------------|
|-0-6-0-6---0-6-0-8-0-6-0-2.5rb1-|-0-6-0-6---0-6-0-8-0-6-0-2.5rb1-|
  . . . . . . . . . . . .          . . . . . . . . . . . .
|-----------------------------------|----------------------------------|Here,
|-----------------------------------|----------------------------------|you
|-----------------------------------|----------------------------------|release
|-----------------------------------|----------------------------------|the
|---------5-------------------------|---------5------------------------|bend
|-0-6-0-6---0-6-0-8-0-6-0-5-0-1b2.5-|-0-6-0-6---0-6-0-8-0-6-0-2.5rb1---|slower.
  . . . . . . . . . . . . . .         . . . . . . . . . . . .

Intro: Un-muted
|-----------------------------------|--------------------------------|
|-----------------------------------|--------------------------------|
|-----------------------------------|--------------------------------|
|-----------------------------------|--------------------------------|
|---------5-------------------------|---------5----------------------|
|-0-6-0-6---0-6-0-8-0-6-0-5-0-1b2.5-|-0-6-0-6---0-6-0-8-0-6-0-2.5rb1-|

|-----------------------------------|-----------------------------------|
|-----------------------------------|-----------------------------------|
|-----------------------------------|-----------------------------------|
|-----------------------------------|---------------------------------0-|
|---------5-------------------------|---------5-----------------------0-|
|-0-6-0-6---0-6-0-8-0-6-0-5-0-1b2.5-|-0-6-0-6---0-6-0-8-0-6-0-5-0-3-6-0-|

Verse 1:
|--------------------------------------------------------------------|
|--------------------------------------------------------------------|
|--------------------------------------------------------------------|
|--------------------------------------------------------------------|
|---------------------5---------------5---------6--------------------|
|-0-3-6-0-0-----0-3-5---6-0-0---0-3-5---6-0-3-5-----0-0----0-3-6-0-0-|
 Play above once, then below     | Play above again, play below
|--------------------------------|-----------------------------| Just leave
|--------------------------------|-----------------------------| out the
|--------------------------------|-----------------------------| 0,0,0, this
|-------8---3--5-------------0---|-------8---3--5--------------| time
|-------8---3--5-------------0---|-------8---3--5--------------|
|-0-3-5-8---3--5-----5-0-3-6-0---|-0-3-5-8---3--5------5-0-3-6-|

Pre-Chorus 1                 x3
|-----------------------------|---------------------------------|
|-----------------------------|---------------------------------|
|-----------------------------|---------------------------------|
|-----------------------------|---------------------------------|
|---------5-------------------|---------5-----------------------|
|-0-6-0-6---0-6-0-8-0-6-0-5p0-|-0-6-0-6---0-6-0-8-0-6-0-5p0-3p0-|

Chorus 1
|-------------------------------------------------|
|-------------------------------------------------|
|-10-10-10-10-10-10-10-10-10-10-10-10-10-10-10-10-|
|-8--8--8--8--8--8--8--8--8--8--8--8--8--8--8--8--|
|-8--8--8--8--8--8--8--8--8--8--8--8--8--8--8--8--|
|-8--8--8--8--8--8--8--8--8--8--8--8--8--8--8--8--|

|-------------------------------------------------|
|-------------------------------------------------|
|-7--7--7--7--7--7--7--7--7--7--7--7--7--7--7--7--|
|-5--5--5--5--5--5--5--5--5--5--5--5--5--5--5--5--|
|-5--5--5--5--5--5--5--5--5--5--5--5--5--5--5--5--|
|-5--5--5--5--5--5--5--5--5--5--5--5--5--5--5--5--|

|-------------------------------------------------|
|-------------------------------------------------|
|-------------------------------------------------|
|-4--4--4--4--4--4--4--4--4--4--4--4--------------|
|-0--0--0--0--0--0--0--0--0--0--0--0--------------|
|-0--0--0--0--0--0--0--0--0--0--0--0--2.5rb1------|

|-------------------------------------------------|
|-------------------------------------------------|
|-10-10-10-10-10-10-10-10-10-10-10-10-10-10-10-10-|
|-8--8--8--8--8--8--8--8--8--8--8--8--8--8--8--8--|
|-8--8--8--8--8--8--8--8--8--8--8--8--8--8--8--8--|
|-8--8--8--8--8--8--8--8--8--8--8--8--8--8--8--8--|

|-------------------------------------------------|
|-------------------------------------------------|
|-12-12-12-12-12-12-12-12-9--9--9--9--9--9--9--9--|
|-10-10-10-10-10-10-10-10-7--7--7--7--7--7--7--7--|
|-10-10-10-10-10-10-10-10-7--7--7--7--7--7--7--7--|
|-10-10-10-10-10-10-10-10-7--7--7--7--7--7--7--7--|

Turn Around/Post Chorus 1
Guitar 1
|----------------------------------------------------------| This release
|----------------------------------------------------------| bend is like the
|----------------------------------------------------------| last one in the
|----------------------------------------------------------| first part of the
|-------------5---------------------------3----------------| intro: slower to
|-0-0--0--0-0----0-0--0-3-6---0-0--0--0-0----0-0--2.5rb1---| release.

Guitar 2
|-|--11|-Play 8x------------|-|--11|-Play 6x times-------|
|-|15--|--------------------|-|13--|---------------------|
|---------------------------|----------------------------|
|---------------------------|----------------------------|
|---------------------------|----------------------------|
|---------------------------|----------------------------|

Repeat the un-muted intro!!!

Next repeat verse!!!

Pre-Chorus 2                  x2
|-------------------------------|----------------------------|
|-------------------------------|----------------------------|
|-------------------------------|----------------------------|
|-------------------------------|----------------------------|
|---------5---------------------|---------5------------------|
|-0-6-0-6---0-6-0-8-0-6-0-5p0---|-0-6-0-6---0-6-0-8-0-0---0--|

|---------------------------------|
|---------------------------------|
|---------------------------------|
|---------------------------------|
|---------5-----------------------|
|-0-6-0-6---0-6-0-8-0-6-0-5p0-3p0-|


Chorus 2 is the same as the 1st!!!

Turn Around/Post Chorus 2  (Each guitar plays it twice)
Guitar 1
|---------------------------------------------------------|
|---------------------------------------------------------|
|---------------------------------------------------------|
|---------------------------------------------------------|
|-------------5---------------------------3-------6-5-----|
|-0-0--0--0-0----0-0--0-3-6---0-0--0--0-0----0--0-----3-6-|

Guitar 2
|-|--11|-Play 8x-----------|-|--11|-Play 8x--------------| Guitar 2 kind of
|-|15--|-------------------|-|13--|----------------------| fades with this
|--------------------------|-----------------------------| riff into the
|--------------------------|-----------------------------| bridge.
|--------------------------|-----------------------------|
|--------------------------|-----------------------------|

Bridge
|--Just wait a while, the drums,vocals,--|------------------------------|
|--and strings play without you for a bit|------------------------------|
|----------------------------------------|-Now play these---------------|
|----------------------------------------|-four chords before-----------|
|----------------------------------------|-entering the------1--1--1--1-|
|----------------------------------------|-heavier bridge----0--0--0--0-|

Play all this twice twice
|-----------------------------------|-------------------------------------|
|-----------------------------------|-------------------------------------|
|-----------------------------------|-------------------------------------|
|-----------------------------------|-------------------------------------|
|-----------------------------------|-------------------------8-7---------|
|-0-0-8-0-11-0-0-8-0-11-0-0-7-0-7-8-|-0-0-8-0-11-0-0-8-0-11-0-----10-7-11-|


Chorus 3 same as first two!!!

-------------------------------------------------------------------
                                 Outro I.
|-----------------------------------------------------------------| It's 32
|-----------------------------------------------------------------| strums!
|-7-7-7-7-7-7-7-7-7-7-7-7-7-7-7-7-7-7-7-7-7-7-7-7-7-7-7-7-7-7-7-7-|
|-5-5-5-5-5-5-5-5-5-5-5-5-5-5-5-5-5-5-5-5-5-5-5-5-5-5-5-5-5-5-5-5-|
|-5-5-5-5-5-5-5-5-5-5-5-5-5-5-5-5-5-5-5-5-5-5-5-5-5-5-5-5-5-5-5-5-|
|-5-5-5-5-5-5-5-5-5-5-5-5-5-5-5-5-5-5-5-5-5-5-5-5-5-5-5-5-5-5-5-5-|
  ^           ^           ^       ^           ^           ^
|-----------------------------------------------------------------|
|-----------------------------------------------------------------|
|-7-7-7-7-7-7-7-7-7-7-7-7-7-7-7-7-----------------7-7-7-7-7-7-7-7-|
|-4-4-4-4-4-4-4-4-4-4-4-4-4-4-4-4-4-4-4-4-4-4-4-4-4-4-4-4-4-4-4-4-|
|-5-5-5-5-5-5-5-5-5-5-5-5-5-5-5-5-0-0-0-0-0-0-0-0-5-5-5-5-5-5-5-5-|
|-4-4-4-4-4-4-4-4-4-4-4-4-4-4-4-4-0-0-0-0-0-0-0-0-4-4-4-4-4-4-4-4-|
  ^           ^           ^       ^               ^
|-----------------------------------------------------------------|
|-----------------------------------------------------------------|
|-7-7-7-7-7-7-7-7-7-7-7-7-7-7-7-7-7-7-7-7-7-7-7-7-7-7-7-7-7-7-7-7-|
|-5-5-5-5-5-5-5-5-5-5-5-5-5-5-5-5-5-5-5-5-5-5-5-5-5-5-5-5-5-5-5-5-|
|-5-5-5-5-5-5-5-5-5-5-5-5-5-5-5-5-5-5-5-5-5-5-5-5-5-5-5-5-5-5-5-5-|
|-5-5-5-5-5-5-5-5-5-5-5-5-5-5-5-5-5-5-5-5-5-5-5-5-5-5-5-5-5-5-5-5-|
  ^           ^           ^       ^           ^           ^
|-----------------------------------------------------------------|
|-----------------------------------------------------------------|
|-7-7-7-7-7-7-7-7-7-7-7-7-7-7-7-7---------------------------------|
|-4-4-4-4-4-4-4-4-4-4-4-4-4-4-4-4---------------------------------|
|-5-5-5-5-5-5-5-5-5-5-5-5-5-5-5-5-------6-5-------------6-5-------|
|-4-4-4-4-4-4-4-4-4-4-4-4-4-4-4-4-0-0-0-----0-3-6-0-0-0-----0-3-6-|
  ^           ^           ^
------------------------------------------------------------------
                               Outro II.
Guitar 1
|-----------------------------------------------------------------|
|-----------------------------------------------------------------|
|-7-7-7-7-7-7-7-7-7-7-7-7-7-7-7-7-7-7-7-7-7-7-7-7-7-7-7-7-7-7-7-7-|
|-5-5-5-5-5-5-5-5-5-5-5-5-5-5-5-5-5-5-5-5-5-5-5-5-5-5-5-5-5-5-5-5-|
|-5-5-5-5-5-5-5-5-5-5-5-5-5-5-5-5-5-5-5-5-5-5-5-5-5-5-5-5-5-5-5-5-|
|-5-5-5-5-5-5-5-5-5-5-5-5-5-5-5-5-5-5-5-5-5-5-5-5-5-5-5-5-5-5-5-5-|
  ^           ^           ^       ^           ^           ^
Guitar 2 comes in here, strings sounded like this when playing in outro.
|---11--11--11--11--11--11--11--11--11--11--11--11--11--11--11--11-|
|-15--15--15--15--15--15--15--15--15--15--15--15--15--15--15--15---|
|------------------------------------------------------------------|
|------------------------------------------------------------------|
|------------------------------------------------------------------|
|------------------------------------------------------------------|

Guitar 1
|-----------------------------------------------------------------|
|-----------------------------------------------------------------|
|-7-7-7-7-7-7-7-7-7-7-7-7-7-7-7-7-----------------7-7-7-7-7-7-7-7-|
|-4-4-4-4-4-4-4-4-4-4-4-4-4-4-4-4-4-4-4-4-4-4-4-4-4-4-4-4-4-4-4-4-|
|-5-5-5-5-5-5-5-5-5-5-5-5-5-5-5-5-0-0-0-0-0-0-0-0-5-5-5-5-5-5-5-5-|
|-4-4-4-4-4-4-4-4-4-4-4-4-4-4-4-4-0-0-0-0-0-0-0-0-4-4-4-4-4-4-4-4-|
  ^           ^           ^       ^               ^
Guitar 2
|---11--11--11--11--11--11--11--11--11--11--11--11--11--11--11--11-|
|-13--13--13--13--13--13--13--13--13--13--13--13--13--13--13--13---|
|------------------------------------------------------------------|
|------------------------------------------------------------------|
|------------------------------------------------------------------|
|------------------------------------------------------------------|

Guitar 1
|-----------------------------------------------------------------|
|-----------------------------------------------------------------|
|-7-7-7-7-7-7-7-7-7-7-7-7-7-7-7-7-7-7-7-7-7-7-7-7-7-7-7-7-7-7-7-7-|
|-5-5-5-5-5-5-5-5-5-5-5-5-5-5-5-5-5-5-5-5-5-5-5-5-5-5-5-5-5-5-5-5-|
|-5-5-5-5-5-5-5-5-5-5-5-5-5-5-5-5-5-5-5-5-5-5-5-5-5-5-5-5-5-5-5-5-|
|-5-5-5-5-5-5-5-5-5-5-5-5-5-5-5-5-5-5-5-5-5-5-5-5-5-5-5-5-5-5-5-5-|
  ^           ^           ^       ^           ^           ^
Guitar 2
|---11--11--11--11--11--11--11--11--11--11--11--11--11--11--11--11-|
|-15--15--15--15--15--15--15--15--15--15--15--15--15--15--15--15---|
|------------------------------------------------------------------|
|------------------------------------------------------------------|
|------------------------------------------------------------------|
|------------------------------------------------------------------|

Guitar 1
|-----------------------------------------------------------------|
|-----------------------------------------------------------------|
|-7-7-7-7-7-7-7-7-7-7-7-7-7-7-7-7---------------------------------|
|-4-4-4-4-4-4-4-4-4-4-4-4-4-4-4-4---------------------------------|
|-5-5-5-5-5-5-5-5-5-5-5-5-5-5-5-5-------6-5-------------6-5-------|
|-4-4-4-4-4-4-4-4-4-4-4-4-4-4-4-4-0-0-0-----0-3-6-0-0-0-----0-3-6-|
  ^           ^           ^
Guitar 2
|---11--11--11--11--11--11--11--11--------------------------------|
|-13--13--13--13--13--13--13--13----------------------------------|
|-----------------------------------------------------------------|
|-----------------------------------------------------------------|
|-----------------------------------------------------------------|
|-----------------------------------------------------------------|

Now just continue to fade out by repeating Outro II. and the song is ended by the 
angelic voices of several children and some strings haha =)

That's it! Please rate and comment! I hope this helps! Keep rocking, and God Bless!
Tap to rate this tab
 
# A B C D E F G H I J K L M N O P Q R S T U V W X Y Z