Red - Faceless tab

Band: RED
Song: Faceless
Album: Until We Have Faces
Tuning: Drop B - B F# B E G# C#

This is my first tab on Ultimate-Guitar, but I'm open to suggestions. The only thing I'm
not sure of is one part of the second verse.

Main Riff 1
|--------------------------------------------------------|
|--------------------------------------------------------|
|--------------------------------------------------------|
|-7-7--7-7--8--5-0-7--0-3-5-7-7--7-7--8--7-0-10--8-10-12-|
|-0-0--5-0--8--5-0-7--0-3-5-0-0--5-0--8--7-0-10--8-10-12-|
|-0-0--0-0--8--5-0-7--0-3-5-0-0--0-0--8--7-0-10--8-10-12-|

Main Riff 1 (cont.)
|--------------------------------------------------------|
|--------------------------------------------------------|
|--------------------------------------------------------|
|-7-7--7-7--8--5-0-7--0-3-5-8--8-8-8-8-8-8-5--5-5-5-5-5-5|
|-0-0--5-0--8--5-0-7--0-3-5-8--8-8-8-8-8-8-5--5-5-5-5-5-5|
|-0-0--0-0--8--5-0-7--0-3-5-8--8-8-8-8-8-8-5--5-5-5-5-5-5|

Verse 1
|--------------------------------------------------------|
|--------------------------------------------------------|
|--------------------------------------------------------|
|--------------------------------------------------------|
|--------------------------------------------------------|
|0----0--0--0-0--8-0-7-10-0--0-0--0--0--0-0--8-0-7-10/12\|

Verse 1 (cont.)
|--------------------------------------------------------|
|--------------------------------------------------------|
|-----------------------------------------7--7-7--7-7----|
|-------------------------8--8-8-8-8-5----5--5-5--5-5----|
|-------------------------8--8-8-8-8-5----5--5-5--5-5----|
|0-0--0--0--0-0--8-0-7-10-8--8-8-8-8-5----5--5-5--5-5----|

(REPEAT VERSE 1x)

Pre-Chorus
|---------------------------------------------------------|
|---------------------------------------------------------|
|10-101010-1010101010-101010107--7-7-7--7-7-7-7-7--7-7-7-7|
|8--8-8-8--8-8-8-8-8--8-8-8-8-5--5-5-5--5-5-5-5-5--5-5-5-5|
|8--8-8-8--8-8-8-8-8--8-8-8-8-5--5-5-5--5-5-5-5-5--5-5-5-5|
|8--8-8-8--8-8-8-8-8--8-8-8-8-5--5-5-5--5-5-5-5-5--5-5-5-5|

Pre-Chorus (cont.)
|----------------------------------------------------------|
|----------------------------------------------------------|
|10-101010-1010101010-1010101012-121212-1212121212-12121212|
|8--8-8-8--8-8-8-8-8--8-8-8-8-10-101010-1010101010-10101010|
|8--8-8-8--8-8-8-8-8--8-8-8-8-10-101010-1010101010-10101010|
|8--8-8-8--8-8-8-8-8--8-8-8-8-10-101010-1010101010-10101010|

Chorus
|------------------------------------------------------|
|------------------------------------------------------|
|------------------------------------------------------|
|3----3----3-3-3-3--3-3-3-3--3----7----7-7-7-7--7-7-7-7|
|0----0----0-0-0-0--0-0-0-0--3----3----3-3-3-3--3-3-3-3|
|0----0----0-0-0-0--0-0-0-0--3----3----3-3-3-3--3-3-3-3|

Chorus (cont.)
|------------------------------------------------------|
|------------------------------------------------------|
|5--5-5-5--5-5-5--5--5-5--5--5-5--5-8--8-8--8-8---8-8--|
|5--5-5-5--5-5-5--5--5-5--5--5-5--5-5--5-5--5-5---5-5--|
|3--3-3-3--3-3-3--3--3-3--5--5-5--5-5--5-5--5-5---5-5--|
|------------------------------------------------------|

(REPEAT FULL CHORUS)

Main Riff 2
|--------------------------------------------------------|
|--------------------------------------------------------|
|--------------------------------------------------------|
|-7-7--7-7--8--5-0-7--0-3-5-7-7--7-7--8--7-0-10--8-10-12-|
|-0-0--5-0--8--5-0-7--0-3-5-0-0--5-0--8--7-0-10--8-10-12-|
|-0-0--0-0--8--5-0-7--0-3-5-0-0--0-0--8--7-0-10--8-10-12-|

Main Riff 2 (cont.)
|--------------------------------------------------------|
|--------------------------------------------------------|
|--------------------------------------------------------|
|-7-7--7-7--8--5-0-7--0-3-5-8--8-8-8-8-8-8-5--5-5-5-5-5-5|
|-0-0--5-0--8--5-0-7--0-3-5-8--8-8-8-8-8-8-5--5-5-5-5-5-5|
|-0-0--0-0--8--5-0-7--0-3-5-8--8-8-8-8-8-8-5--5-5-5-5-5-5|

Verse 2A
|--------------------------------------------------------|
|--------------------------------------------------------|
|--------------------------------------------------------|
|--------------------------------------------------------|
|--------------------------------------------------------|
|0----0--0--0-0--8-0-7-10-0--0-0--0--0--0-0--8-0-7-10/12\|

Verse 2B
|--------------------------------------------------------|
|--------------------------------------------------------|
|-----------------------------------------7--7-7--7-7----|
|-------------------------8--8-8-8-8-5----5--5-5--5-5----|
|-------------------------8--8-8-8-8-5----5--5-5--5-5----|
|0-0--0--0--0-0--8-0-7-10-8--8-8-8-8-5----5--5-5--5-5----|

Verse 2C
|----------------------------------------------------|
|----------------------------------------------------|
|----------------------------------------------------|
|----------------------------------------------------|
|--------------------------------5-------------------|
|0--0-0--0----0---0--0-0--0--0-0----0-0--8-0-7-10/12\|

Verse 2D
|---------------------------------------------------------|
|---------------------------------------------------------|
|----------------------------------------------7--7-7--7-7|
|------------------------------8--8-8-8-8-5----5--5-5--5-5|
|------5-----8p7----7\5--------8--8-8-8-8-5----5--5-5--5-5|
|0h5p0---7p0-----10-----8p7-10-8--8-8-8-8-5----5--5-5--5-5|

Pre-Chorus 2
|---------------------------------------------------------|
|---------------------------------------------------------|
|10-101010-1010101010-101010107--7-7-7--7-7-7-7-7--7-7-7-7|
|8--8-8-8--8-8-8-8-8--8-8-8-8-5--5-5-5--5-5-5-5-5--5-5-5-5|
|8--8-8-8--8-8-8-8-8--8-8-8-8-5--5-5-5--5-5-5-5-5--5-5-5-5|
|8--8-8-8--8-8-8-8-8--8-8-8-8-5--5-5-5--5-5-5-5-5--5-5-5-5|

Pre-Chorus 2 (cont.)
|----------------------------------------------------------|
|----------------------------------------------------------|
|10-101010-1010101010-1010101012-121212-1212121212-12121212|
|8--8-8-8--8-8-8-8-8--8-8-8-8-10-101010-1010101010-10101010|
|8--8-8-8--8-8-8-8-8--8-8-8-8-10-101010-1010101010-10101010|
|8--8-8-8--8-8-8-8-8--8-8-8-8-10-101010-1010101010-10101010|

Chorus 2
|------------------------------------------------------|
|------------------------------------------------------|
|------------------------------------------------------|
|3----3----3-3-3-3--3-3-3-3--3----7----7-7-7-7--7-7-7-7|
|0----0----0-0-0-0--0-0-0-0--3----3----3-3-3-3--3-3-3-3|
|0----0----0-0-0-0--0-0-0-0--3----3----3-3-3-3--3-3-3-3|

Chorus 2 (cont.)
|------------------------------------------------------|
|------------------------------------------------------|
|5--5-5-5--5-5-5--5--5-5--5--5-5--5-8--8-8--8-8---8-8--|
|5--5-5-5--5-5-5--5--5-5--5--5-5--5-5--5-5--5-5---5-5--|
|3--3-3-3--3-3-3--3--3-3--5--5-5--5-5--5-5--5-5---5-5--|
|------------------------------------------------------|

(REPEAT FULL CHORUS)

(Post-Chorus uses the Chorus's chords, but all in eighth note downstrokes)

(Live, Anthony skips the Post-Chorus and goes straight into what I call the "Chaos"
section, which could also be called the Pre-Bridge Interlude. In this section, there are
multiple flanger/phaser/delay effects being used, and you just ride the open low E (now 
B) string on eighth notes)

Pre-Bridge Interlude
|---------------------------------------------------------------|
|---------------------------------------------------------------|
|---------------------------------------------------------------|
|---------------------------------------------------------------|  x2
|---------------------------------------------------------------|
|0-0-0-0-0-0-0-0-0-0-0-0-0-0-0-0-0-0-0-0-0-0-0-0-0-0-0-0-0-0-0-0|

Bridge
|--------------------------------------------------------------------------|
|--------------------------------------------------------------------------|
|--------------------------------------------------------------------------|
|--------------------------------------------------------------------------|
|----------5------------------------------------5--------------------------|
|0h3p0h5p0---7p0-12p11p0-11p10p0-8h10-0h3p0h5p0---7p0-12p11p0-11p10p0-10h13|

(REPEAT BRIDGE)

Chorus 3
|------------------------------------------------------|
|------------------------------------------------------|
|------------------------------------------------------|
|3----3----3-3-3-3--3-3-3-3--3----7----7-7-7-7--7-7-7-7|
|0----0----0-0-0-0--0-0-0-0--3----3----3-3-3-3--3-3-3-3|
|0----0----0-0-0-0--0-0-0-0--3----3----3-3-3-3--3-3-3-3|

Chorus 3 (cont.)
|------------------------------------------------------|
|------------------------------------------------------|
|5--5-5-5--5-5-5--5--5-5--5--5-5--5-8--8-8--8-8---8-8--|
|5--5-5-5--5-5-5--5--5-5--5--5-5--5-5--5-5--5-5---5-5--|
|3--3-3-3--3-3-3--3--3-3--5--5-5--5-5--5-5--5-5---5-5--|
|------------------------------------------------------|

(REPEAT FULL CHORUS)

Outro A
|---------------------------------------------------------|
|---------------------------------------------------------|
|---------------------------------------------------------|
|---------------------------------------------------------|
|---------------------------------------------------------|
|0h3p0h5--0--0--0-0--8-7-0-10-0h3p0h5--0--0--0-0--8-7-0-11|

Outro B
|----------------------------------------------------------------|
|----------------------------------------------------------------|
|----------------------------------------------------------------|
|-------------------------------------------12p11p0-11p10p0-10h13|
|-------------------------------------------12p11p0-11p10p0-10h13|
|0h3p0h5--0--0--0-0--8-7-0-10-0h3p0h5--0--0-12-11p0-11p10p0-10h13|
Tap to rate this tab
 
# A B C D E F G H I J K L M N O P Q R S T U V W X Y Z