Song name
# A B C D E F G H I J K L M N O P Q R S T U V W X Y Z

Red - Buried Beneath tab

Song: Buried Beneath
Artist: Red
Album: Until We Have Faces
Tuning: Drop C, so CGCFAD

In my opinion, a relentlessly powerful song. As of now this is the most accurate I can
make it, but I'll continue looking over the Bridge. I just wanted to tab the rest out as
soon as possible. Enjoy!! :)Timing is off in a couple of places, but I'm sure you guys 
can guess what it should sound like!

Key:     x muted string (not played)     h hammer on

         12~/ Hit the 12th fret and pause briefly before sliding down the
         string (you'll see this in Guitar 2's part during the bridge)

         p pull off      / slide up      . palm mute

Intro:
Guitar 1:
|-------------------------------------------------------------------------|
|-------------------------------------------------------------------------|
|-----6----6-----6------6-----6-----------6-----6-----6-----6--------6----|
|-7-----7-----7-----9-----9-----------9-----9------9-----7-----7--9-----9-|
|-------------------------------------------------------------------------|
|-------------------------------------------------------------------------|

Guitar 2:
|-------------------------------------------------------------------------|
|-------------------------------------------------------------------------|
|-------------------------------------------------------------------------|
|-------------------------------------------------------------------------|
|-9---9--9--9--9--9-5----5----5-------9---9--9--9--9--9-5------5-7------7-|
|-------------------------------------------------------------------------|

Guitar 1:
|-------------------------------------------------------------------------|
|-10-10-10-10-10-10-10-10-10-10-10-10-14-14-14-14-14-14-14-14-14-14-14-14-|
|-x--x--x--x--x--x--x--x--x--x--x--x--x--x--x--x--x--x--x--x--x--x--x--x--|
|-7--7--7--7--7--7--7--7--7--7--7--7--11-11-11-11-11-11-11-11-11-11-11-11-|
|-------------------------------------------------------------------------|
|-------------------------------------------------------------------------|

Guitar 2: (timing off, both guitars should begin and end at same time)
|-9------9------9------9------9------9------9------9----------------------|
|-----12-----12-----12-----12-----12-----12-----12-----12-----------------|
|-------------------------------------------------------------------------|
|-------------------------------------------------------------------------|
|-------------------------------------------------------------------------|
|-------------------------------------------------------------------------|

Guitar 1:
|-------------------------------------------------------------------------|
|-10-10-10-10-10-10-10-10-10-10-10-10-14-14-14-14-14-14-12-12-12-12-12-12-|
|-x--x--x--x--x--x--x--x--x--x--x--x--x--x--x--x--x--x--x--x--x--x--x--x--|
|-7--7--7--7--7--7--7--7--7--7--7--7--11-11-11-11-11-11-9--9--9--9--9--9--|
|-------------------------------------------------------------------------|
|-------------------------------------------------------------------------|

Guitar 2:
|-9------9------9------9------9------9------9------9----------------------|
|-----12-----12-----12-----12-----12-----12-----12-----12-----------------|
|-------------------------------------------------------------------------|
|-------------------------------------------------------------------------|
|-------------------------------------------------------------------------|
|-------------------------------------------------------------------------|
|-------------------------------------------------------------------------|

Main Riff: Play twice
Guitar 1:
|------------------------------------------------------------------------|
|------------------------------------------------------------------------|
|------------------------------------------------------------------------|
|-4--4--4--4--4--4--4--4--4--4--4--4--0--0--0--0--0--0--0--0--0--0--0--0-|
|-4--4--4--4--4--4--4--4--4--4--4--4--0--0--0--0--0--0--0--0--0--0--0--0-|
|-4--4--4--4--4--4--4--4--4--4--4--4--0--0--0--0--0--0--0--0--0--0--0--0-|

Guitar 2:
|------------------------------------------------------------------------|
|------------------------------------------------------------------------|
|-------------Just continue playing same riff from-----------------------|
|-------------the verse at same exact speed!-----------------------------|
|------------------------------------------------------------------------|
|------------------------------------------------------------------------|

Guitar 1:
|------------------------------------------------------------------------|
|------------------------------------------------------------------------|
|-4--4--4--4--4--4--4--4--4--4--4--4-------------------------------------|
|-4--4--4--4--4--4--4--4--4--4--4--4--0--0--0--0--0--0--2--2-------------|
|-2--2--2--2--2--2--2--2--2--2--2--2--0--0--0--0--0--0--2--2-------2h4---|
|-------------------------------------0--0--0--0--0--0--2--2--2h4--------|

Guitar 2:
|------------------------------------------------------------------------|
|------------------------------------------------------------------------|
|-------------Just continue playing same riff from-----------------------|
|-------------the verse at same exact speed!-----------------------------|
|------------------------------------------------------------------------|
|------------------------------------------------------------------------|

Verse 1:
Guitar 1:
|-------------------------------------------------------------------------|
|-------------------------------------------------------------------------|
|-----6----6-----6------6-----6-----------6-----6-----6-----6--------6----|
|-7-----7-----7-----9-----9-----------9-----9------9-----7-----7--9-----9-|
|-------------------------------------------------------------------------|
|-------------------------------------------------------------------------|

Guitar 2:
|-------------------------------------------------------------------------|
|-------------------------------------------------------------------------|
|-------------------------------------------------------------------------|
|-------------------------------------------------------------------------|
|-------------------------------------------------------------------------|
|-------------------------------------------------------------------------|

Guitar 1:
|-------------------------------------------------------------------------|
|-------------------------------------------------------------------------|
|-----6----6-----6------6-----6-----------6-----6-----6-----6--------6----|
|-7-----7-----7-----9-----9-----------9-----9------9-----7-----7--9-----9-|
|-------------------------------------------------------------------------|
|-------------------------------------------------------------------------|

Guitar 2: (Play this twice within the time of guitar 1 playing above once.)
|-9--9--9--9--9--9--9--9--9--9--9--9--7--7--7--7--7--7--7--7--7--7--7--7--|
|-------------------------------------------------------------------------|
|-------------------------------------------------------------------------|
|-------------------------------------------------------------------------|
|-------------------------------------------------------------------------|
|-------------------------------------------------------------------------|

Guitar 1:
|-------------------------------------------------------------------------|
|-------------------------------------------------------------------------|
|-------------------------------------------------------------------------|
|-------------------------------------------------------------------------|
|-------------------------------------------------------------------------|
|-------------------------------------------------------------------------|

Guitar 2:
|-9--9--9--9--9--9--9--9--9--9--9--9--7--7--7--7--7--7--7-----------------|
|-------------------------------------------------------------------------|
|-------------------------------------------------------------------------|
|-------------------------------------------------------------------------|
|-------------------------------------------------------------------------|
|-------------------------------------------------------------------------|

Chorus 1: (Play twice, but on 2nd time, replace hammer-ons at end of guitar
1's part and fill in 4 more 2nd fret power chords like before hammer-ons.)
Guitar 1:
|------------------------------------------------------------------------|
|------------------------------------------------------------------------|
|------------------------------------------------------------------------|
|-4--4--4--4--4--4--4--4--4--4--4--4--0--0--0--0--0--0--0--0--0--0--0--0-|
|-4--4--4--4--4--4--4--4--4--4--4--4--0--0--0--0--0--0--0--0--0--0--0--0-|
|-4--4--4--4--4--4--4--4--4--4--4--4--0--0--0--0--0--0--0--0--0--0--0--0-|

Guitar 2:
|------------------------------------------------------------------------|
|------------------------------------------------------------------------|
|-------------Again, keep playing same riff from the intro and-----------|
|-------------the verse at same exact speed.-----------------------------|
|------------------------------------------------------------------------|
|------------------------------------------------------------------------|

Guitar 1:
|------------------------------------------------------------------------|
|------------------------------------------------------------------------|
|-4--4--4--4--4--4--4--4--4--4--4--4-------------------------------------|
|-4--4--4--4--4--4--4--4--4--4--4--4--0--0--0--0--0--0--2--2-------------|
|-2--2--2--2--2--2--2--2--2--2--2--2--0--0--0--0--0--0--2--2-------2h4---|
|-------------------------------------0--0--0--0--0--0--2--2--2h4--------|

Guitar 2:
|------------------------------------------------------------------------|
|------------------------------------------------------------------------|
|-------------Again, keep playing same riff from the intro and-----------|
|-------------the verse at same exact speed.-----------------------------|
|------------------------------------------------------------------------|
|------------------------------------------------------------------------|

Post Chorus (Main Riff 1 Again, Play once!)

Guitar 1:
|------------------------------------------------------------------------|
|------------------------------------------------------------------------|
|------------------------------------------------------------------------|
|-4--4--4--4--4--4--4--4--4--4--4--4--0--0--0--0--0--0--0--0--0--0--0--0-|
|-4--4--4--4--4--4--4--4--4--4--4--4--0--0--0--0--0--0--0--0--0--0--0--0-|
|-4--4--4--4--4--4--4--4--4--4--4--4--0--0--0--0--0--0--0--0--0--0--0--0-|

Guitar 2:
|------------------------------------------------------------------------|
|------------------------------------------------------------------------|
|-------------Just continue playing same riff from-----------------------|
|-------------the verse at same exact speed!-----------------------------|
|------------------------------------------------------------------------|
|------------------------------------------------------------------------|

Guitar 1:
|------------------------------------------------------------------------|
|------------------------------------------------------------------------|
|-4--4--4--4--4--4--4--4--4--4--4--4-------------------------------------|
|-4--4--4--4--4--4--4--4--4--4--4--4--0--0--0--0--0--0--2--2-------------|
|-2--2--2--2--2--2--2--2--2--2--2--2--0--0--0--0--0--0--2--2-------2h4---|
|-------------------------------------0--0--0--0--0--0--2--2--2h4--------|

Guitar 2:
|------------------------------------------------------------------------|
|------------------------------------------------------------------------|
|-------------Just continue playing same riff from-----------------------|
|-------------the verse at same exact speed!-----------------------------|
|------------------------------------------------------------------------|
|------------------------------------------------------------------------|

Verse 2: I've got to be honest, I got lazy here, but just go with "Second verse, same as
the fist," because that's how it is.

Chorus 2: Second chorus, same as the first. . .Doesn't rhyme, but you get the idea ;)

Play main riff one last time before going into the Bridge!!

Bridge:
Guitar 1:
|------------------------------------------------------------------------|
|------------------------------------------------------------------------|
|------------------------------------------------------------------------|
|-0--0--0--0--0--0--0--0--0--0--0--0--2--2--2--2--2--2--2--2--2--2--2--2-|
|-0--0--0--0--0--0--0--0--0--0--0--0--2--2--2--2--2--2--2--2--2--2--2--2-|
|-0--0--0--0--0--0--0--0--0--0--0--0--2--2--2--2--2--2--2--2--2--2--2--2-|

Guitar 2: (Actually gets to do something more interesting.)
|-------------------------------------------------------------------|
|-------------10-10-10-9--9--9--12-12-12-12-12-12-12-12-12-12-12-12-|
|-------------x--x--x--x--x--x--x--x--x--x--x--x--x--x--x--x--x--x--|
|-------------7--7--7--6--6--6--9--9--9--9--9--9--9--9--9--9--9--9--|
|-------------------------------------------------------------------|
|-------------------------------------------------------------------|

Guitar 1:
|------------------------------------------------------------------------|
|------------------------------------------------------------------------|
|------------------------------------------------------------------------|
|-1--1--1--1--1--1--1--1--1--1--1--1--0--0--0--0--0--0--0--0--0--0--0--0-|
|-1--1--1--1--1--1--1--1--1--1--1--1--0--0--0--0--0--0--0--0--0--0--0--0-|
|-1--1--1--1--1--1--1--1--1--1--1--1--0--0--0--0--0--0--0--0--0--0--0--0-|

Guitar 2:
|------------------------------------------------------------------------|
|-12-12-12-12-12-12-12-12-12-12------------------------------------------|
|-x--x--x--x--x--x--x--x--x--x-------------------------------------------|
|-9--9--9--9--9--9--9--9--9--9-------------------------------------------|
|-------------------------------12~/-------------------------------------|
|------------------------------------------------------------------------|

Guitar 1:
|------------------------------------------------------------------------|
|------------------------------------------------------------------------|
|------------------------------------------------------------------------|
|-4--4--4--4--4--4--4--4--4--4--4--4--7--7--7--7--7--7--7--7--7--7--7--7-|
|-4--4--4--4--4--4--4--4--4--4--4--4--7--7--7--7--7--7--7--7--7--7--7--7-|
|-4--4--4--4--4--4--4--4--4--4--4--4--7--7--7--7--7--7--7--7--7--7--7--7-|

Guitar 2:
|-------------------------------------------------------------------------|
|-10-10-10-10-10-10-10-10-10-10-10-10-12-12-12-12-12-12-12-12-12-12-12-12-|
|-x--x--x--x--x--x--x--x--x--x--x--x--x--x--x--x--x--x--x--x--x--x--x--x--|
|-7--7--7--7--7--7--7--7--7--7--7--7--9--9--9--9--9--9--9--9--9--9--9--9--|
|-------------------------------------------------------------------------|
|-------------------------------------------------------------------------|

Guitar 1:
|------------------------------------------|
|------------------------------------------|
|------------------------------------------|
|-2h4--4--2-4----------2h4--4--2-4---------|
|-2h4--4--2-4----------2h4--4--2-4-----2h4-|
|-2h4--4--2-4--4p2-4/7-2h4--4--2-4--2h4----|

Guitar 2:
|-----------------------------------------------|
|-----------------------------------------------|
|-I'm not quite sure if anything is even played-|
|-right here, let alone if I know how to play---|
|-it yet. Suggestions??-------------------------|
|-----------------------------------------------|

Guitar 1:
|------------------------------------------------------------------------|
|------------------------------------------------------------------------|
|-2--2--2--2--2--2--2--2--2--2--2--2--4--4--4--4--4--4--4--4--4--4--4--4-|
|-0--0--0--0--0--0--0--0--0--0--0--0--2--2--2--2--2--2--2--2--2--2--2--2-|
|-0--0--0--0--0--0--0--0--0--0--0--0--2--2--2--2--2--2--2--2--2--2--2--2-|
|-0--0--0--0--0--0--0--0--0--0--0--0--2--2--2--2--2--2--2--2--2--2--2--2-|

Guitar 2:
|-------------------------------------------------------------------------|
|-10-10-10-10-10-10-10-10-10-10-10-10-12-12-12-12-12-12-12-12-12-12-12-12-|
|-x--x--x--x--x--x--x--x--x--x--x--x--x--x--x--x--x--x--x--x--x--x--x--x--|
|-7--7--7--7--7--7--7--7--7--7--7--7--9--9--9--9--9--9--9--9--9--9--9--9--|
|-------------------------------------------------------------------------|
|-------------------------------------------------------------------------|

Chorus 3: Same as first 2!!!  Lazy again, but I'm assuming you wouldn't read the same
thing over and over again either.

Outro: Main Riff Once plus below.
Guitar 1:
|------------------------------------------------------------------------|
|------------------------------------------------------------------------|
|------------------------------------------------------------------------|
|-4--4--4--4--4--4--4--4--4--4--4--4--0--0--0--0--0--0--0--0--0--0--0--0-|
|-4--4--4--4--4--4--4--4--4--4--4--4--0--0--0--0--0--0--0--0--0--0--0--0-|
|-4--4--4--4--4--4--4--4--4--4--4--4--0--0--0--0--0--0--0--0--0--0--0--0-|

Guitar 2:
|------------------------------------------------------------------------|
|------------------------------------------------------------------------|
|-Same riff again. . .I'm sure you remember.-----------------------------|
|------------------------------------------------------------------------|
|------------------------------------------------------------------------|
|------------------------------------------------------------------------|

Guitar 1:
|------------------------------------------------------------------------|
|------------------------------------------------------------------------|
|-4--4--4--4--4--4--4--4--4--4--4--4-------------------------------------|
|-4--4--4--4--4--4--4--4--4--4--4--4--0--0--0--0--0--0--------------4----|
|-2--2--2--2--2--2--2--2--2--2--2--2--0--0--0--0--0--0--4h5-4---2h4-4----|
|-------------------------------------0--0--0--0--0--0--------2-----4----|

Guitar 2:
|------------------------------------------------------------------------|
|------------------------------------------------------------------------|
|------------------------------------------------------------------------|
|-Same riff. . .blah blah blah-------------------------------------------|
|------------------------------------------------------------------------|
|------------------------------------------------------------------------|

If you want to play the piano and strings part, here you go! Sorry, but I only included
the muted strings instruments
Guitar 1:
|-------------9-----------------10------------------------------------------|
|-10--10--10--------10--10--10---------12--12--12--12-----10-10-10-12-12-12-|
|---------------------------------------------------------------------------|
|---------------------------------------------------------------------------|
|---------------------------------------------------------------------------|
|---------------------------------------------------------------------------|

Guitar 2:
|---------------------------------------------------------------------------|
|---------------------------------------------------------------------------|
|---------------------------------------------------------------------------|
|---------------------------------------------------------------------------|
|---------------------------------------------------------------------------|
|---------------------------------------------------------------------------|

Guitar 1:
|-----------------9---------------------10--------|
|-10---10---10-----------10---10---10-------------|
|-------------------------------------------------|
|-------------------------------------------------|
|-------------------------------------------------|
|-------------------------------------------------|

Guitar 2: (All muted)
|-------------------------------------------------|
|-------------------------------------------------|
|-------------------------------------------------|
|---------7---11--7--6-7----------7---12--11--6-7-|
|-9--9-11---9------------9-9-11-9---9-------------|
|-------------------------------------------------|
  .  . .  . . .   .  . . . . .  . . . .   .   . .
Guitar 1:
|---------------------------------------------------|
|-12--12--12--12---------10-10-10-12-12-12----------|
|---------------------------------------------------|
|---------------------------------------------------|
|---------------------------------------------------|
|---------------------------------------------------|

Guitar 2: (All muted)
|-----------------------------------------------------|
|-----------------------------------------------------|
|-----------------------------------------------------|
|----------7---11--7--6-7----------7---12--11---------|
|-9-9-11-9---9------------9-9-11-9---9---------12--9--|
|-----------------------------------------------------|
  . . .  . . . .   .  . . . . .  . . . .   .   .   .
PHEW!!! Done! Alright, enjoy Buried Beneath! Guitar 2, I'm sorry your part is kinda
boring pretty much throughout the entire song, unless of course you play the muted strings.
Please, Rate, Comment, and makes suggestions!
Tap to rate this tab
# A B C D E F G H I J K L M N O P Q R S T U V W X Y Z