Song name
# A B C D E F G H I J K L M N O P Q R S T U V W X Y Z

Red - Start Again tab

Tabbed by: whammybar11

Awesome song by Red off the Innocence & Instinct album. Very easy, sounds killer.
Please rate. God bless!

INTRO I (light dist. and very low vol.)
|---------------------------------------------------------------------------------|
|---------------------------------------------------------------------------------|
|----------------------------------------------------------------9----9-9--9------|
|--4---4----4-4--4---------4----4-4--4--------7----7-7--7--------9----9-9--9------|
|--5---5----5-5--5----(4)---4----4-4--4--------7----7-7--7---(7)---7----7-7--7----|
|--7---7----7-7--7---------7----7-7--7---(7)---7----7-7--7------------------------|

INTRO II ( reg. vol. and dist.)
|-----------------------------------------------------------------------------|
|-----------------------------------------------------------------------------|
|-----------------------------------------------------------------------------|
|--0-0-0-0-0-0-0-0-0-0-0-0-0-0-0-0-4-4-4-4-4-4-4-4-4-4-4-4-4-4-4-4--|---------|
|--0-0-0-0-0-0-0-0-0-0-0-0-0-0-0-0-4-4-4-4-4-4-4-4-4-4-4-4-4-4-4-4--|      ---|
|--0-0-0-0-0-0-0-0-0-0-0-0-0-0-0-0-4-4-4-4-4-4-4-4-4-4-4-4-4-4-4-4--|      ---|
                                                                                         
                                                                            2x
|-------------------------------------------------------------------|      ---|
|-------------------------------------------------------------------|      ---|
|-------------------------------------------------------------------|---------|
|--7-7-7-7-7-7-7-7-7-7-7-7-7-7-7-7-2-2-2-2-2-2-2-2-2-2-2-2-2-2-2-2------------|
|--7-7-7-7-7-7-7-7-7-7-7-7-7-7-7-7-2-2-2-2-2-2-2-2-2-2-2-2-2-2-2-2------------|
|--7-7-7-7-7-7-7-7-7-7-7-7-7-7-7-7-2-2-2-2-2-2-2-2-2-2-2-2-2-2-2-2------------|

VERSE-"What if I let you win..."
|-----------------------|----|---------------------------|----|
|-----------------------|----|---------------------------|----|
|-----------------------|-4x-|---------------------------|-4x-|
|-------11--------11----|----|--------11----------11-----|----|
|--12-9----9-12-9----9--|----|--12----------12-----------|----|
|-----------------------|----|-----14----14----14----14--|----|

Repeat Verse
Chorus is the EXACT same thing as Intro II
Play Verse again
Another Chorus

BRIDGE-"I'm lost inside the pain..."
|-----------------------------------------------------------------------------|
|-----------------------------------------------------------------------------|
|-----------------------------------------------------------------------------|
|--4-4-4-4-4-4-4-4-4-4-4-4-4-4-4-4-2-2-2-2-2-2-2-2-2-2-2-2-2-2-2-2--|---------|
|--4-4-4-4-4-4-4-4-4-4-4-4-4-4-4-4-2-2-2-2-2-2-2-2-2-2-2-2-2-2-2-2--|      ---|
|--4-4-4-4-4-4-4-4-4-4-4-4-4-4-4-4-2-2-2-2-2-2-2-2-2-2-2-2-2-2-2-2--|      ---|
                                                                                         
                                                                            2x
|-------------------------------------------------------------------|      ---|
|-------------------------------------------------------------------|      ---|
|--6-6-6-6-6-6-6-6-6-6-6-6-6-6-6-6----------------------------------|---------|
|--6-6-6-6-6-6-6-6-6-6-6-6-6-6-6-6-0-0-0-0-0-0-0-0-0-0-0-0-0-0-0-0------------|
|--4-4-4-4-4-4-4-4-4-4-4-4-4-4-4-4-0-0-0-0-0-0-0-0-0-0-0-0-0-0-0-0------------|
|--6-6-6-6-6-6-6-6-6-6-6-6-6-6-6-6-0-0-0-0-0-0-0-0-0-0-0-0-0-0-0-0------------|

|-------------------------------------------------------------------|
|-------------------------------------------------------------------|
|-------------------------------------------------------------------|
|--4-4-4-4-4-4-4-4-6-6-6-6-7-7-7-7-2-2-2-2-2-2-2-2-6-6-6-6-7-7-7-7--|
|--4-4-4-4-4-4-4-4-6-6-6-6-7-7-7-7-2-2-2-2-2-2-2-2-6-6-6-6-7-7-7-7--|
|--4-4-4-4-4-4-4-4-6-6-6-6-7-7-7-7-2-2-2-2-2-2-2-2-6-6-6-6-7-7-7-7--|

|-------------------------------------------------------------------|
|-------------------------------------------------------------------|
|--6-6-6-6-6-6-6-6--------------------------------------------------|
|--6-6-6-6-6-6-6-6-7-7-7-7-6-6-6-6-0-0-0-0-0-0-0-0-0-0-0-0-2-2-2-2--|
|--4-4-4-4-4-4-4-4-7-7-7-7-6-6-6-6-0-0-0-0-0-0-0-0-0-0-0-0-2-2-2-2--|
|--6-6-6-6-6-6-6-6-7-7-7-7-6-6-6-6-0-0-0-0-0-0-0-0-0-0-0-0-2-2-2-2--|

Pause, then: "One more try..."
|-------------------------------------------------------------------|
|-------------------------------------------------------------------|
|-------------------------------------------------------------------|
|--7-7-7-7-7-7-7-7-7-7-7-7-7-7-7-7-2-2-2-2-2-2-2-2-2-2-2-2-2-2-2-2--|
|--7-7-7-7-7-7-7-7-7-7-7-7-7-7-7-7-2-2-2-2-2-2-2-2-2-2-2-2-2-2-2-2--|
|--7-7-7-7-7-7-7-7-7-7-7-7-7-7-7-7-2-2-2-2-2-2-2-2-2-2-2-2-2-2-2-2--|

Chorus 2x (It's the Outro)

OUTRO (Just this one bar chord. Let ring.)
|-----|
|-----|
|-----|
|--4~-|
|--4~-|
|--4~-|

END
Tap to rate this tab
 
# A B C D E F G H I J K L M N O P Q R S T U V W X Y Z