Song name
# A B C D E F G H I J K L M N O P Q R S T U V W X Y Z

Red - Already Over tab

Band: Red
Song: Already Over
Album: End Of Silence
Really easy song, honestly.



/= Slide up or down, you should be able to figure out which way you are sliding.

Eb|----------------------------------------------------------------|
Bb|----------------------------------------------------------------|
Gb|----------------------------------------------------------------|
Db|9/4-----4-----4----7-----7-----7----2-----2-----2----9---0----2-|
Ab|9/4-----4-----4----7-----7-----7----2-----2-----2----9---0----2-|
Db|9/4-----4-----4----7-----7-----7----2-----2-----2----9---0----2-|

Eb|----------------------------------------------------------------|
Bb|----------------------------------------------------------------|
Gb|----------------------------------------------------------------|
Db|4-----4-----4----7-----7-----7----2-----2-----2----9---0----2---|
Ab|4-----4-----4----7-----7-----7----2-----2-----2----9---0----2---|
Db|4-----4-----4----7-----7-----7----2-----2-----2----9---0----2---|

Next you repeat the chorus, except you just add something to the end of the chorus:

Eb|---------------|
Bb|---------------|
Gb|---------------|
Db|-9---0---2-----|
Ab|-9---0---2-----|
Db|-9---0---2-----|

Yeah you just play the ending again basically. You'll get it.

Next part:

Eb|--------------------------------------|
Bb|--------------------------------------|
Gb|--------------------------------------|
Db|-0---2---4---2---0---2---4---2---0---2|
Ab|-0---2---4---2---0---2---4---2---0---2|
Db|-0---2---4---2---0---2---4---2---0---2|

Note that there will be a 3 second pause in  between each chord, in which time you will 
hold down the note, don't let go.

And then you play the chorus over 4 times, which will end the song, but again you will 
play that double ending I noted earlier:

Eb|---------------|
Bb|---------------|
Gb|---------------|
Db|-9---0---2-----|
Ab|-9---0---2-----|
Db|-9---0---2-----|

Comment and let me know how I did. My first tab :)
Tap to rate this tab
 
# A B C D E F G H I J K L M N O P Q R S T U V W X Y Z