Song name
# A B C D E F G H I J K L M N O P Q R S T U V W X Y Z

Red - Break Me Down tab

Tabbed by: indust from ultimateguitar.com

Tabbed in October 31st 2012.

Tuning: Drop B

As I noticed there's a debate on which tuning is right for Break Me Down, I 
concluded that both tunings are wrong. Let me introduce you the right tuning...it's Drop B guys.

Distorted Intro (0:29)
C#|--------------------------------------------------|
G#|--------------------------------------------------|
E|---------------------------------------------------|
B|--2----10----7----10----0----2----5----7----10-----|
F#|-2----10----7----10----0----2----5----7----10-----|
B|--2----10----7----10----0----2----5----7----10-----|

*acoustic verse* (0:48)

Chorus (1:24)
C#|--------------------------------------------------|
G#|--------------------------------------------------|
E|---------------------------------------------------|
B|--2----10----7----10----0----2----5----7----10-----|
F#|-2----10----7----10----0----2----5----7----10-----|
B|--2----10----7----10----0----2----5----7----10-----|

Distorted verse 2 (1:44)
D#|----------------------------------------------------|
A#|----------------------------------------------------|
F#|----------------------------------------------------|
C#|----------------------------------------------------|
G#|-2-2----------------------------2-2---2-2-2---------|
C#|-2-2----------------------------2-2---2-2-2---------|

Chorus (2:20)


Breakdown (2:58) [hehe, breakdown in Break Me Down, ironic]
D#|-----------------------------------------------------|
A#|-----------------------------------------------------|
F#|-----------------------------------------------------|
C#|-2-2--3-3-2--12\2---2-3-5--3--2-2--3-3-2--12\2---2-3-|
G#|-2-2--3-3-2--12\2---2-3-5--3--2-2--3-3-2--12\2---2-3-|
C#|-2-2--3-3-2--12\2---2-3-5--3--2-2--3-3-2--12\2---2-3-|
                                                             
D#|----------------------------------------------------|
A#|----------------------------------------------------|
F#|----------------------------------------------------|
C#|-2-2--3-3-2--12\2---2-3-5---2-2--3-3-2--12\2---2-3-5|
G#|-2-2--3-3-2--12\2---2-3-5---2-2--3-3-2--12\2---2-3-5|
C#|-2-2--3-3-2--12\2---2-3-5---2-2--3-3-2--12\2---2-3-5|

Chorus (3:37)

Breakdown (3:55)

And that's it :P
Tap to rate this tab
# A B C D E F G H I J K L M N O P Q R S T U V W X Y Z