Song name
# A B C D E F G H I J K L M N O P Q R S T U V W X Y Z

Red - Release The Panic tab

Song:    Release The Panic
Band:    Red
Album:   Release The Panic
By:      amu@buffalo.edu
Tuning:  Dropped Bb (Bb F Bb Eb G C)


   Intro:
 C|--------------------------|--------------------------------|
 G|--------------------------|--------------------------------|
Eb|--------------------------|--------------------------------|
Bb|----------6--6--6---------|---------6--6--6----------------|
 F|----------5--5--5---------|---------5--5--5----------------|
Bb|--6-0---0---0--0--3-3-3/5-|-6-0---0---0--0--3-3-6-6-6-3-5--|

 C|--------------------------|--------------------------------|
 G|--------------------------|--------------------------------|
Eb|--------------------------|--------------------------------|
Bb|----------6--6--6---------|---------6----------------------|
 F|----------5--5--5---------|---------5----------------------|
Bb|--3-0---0---0--0--3-3-3/5-|-6-0---0---0--3--3-5--6-6-/9----|


   Pre-Verse:
 C|--------------------------|--------------------------|
 G|--10----10----10----10----|-10----10----10----10-----|
Eb|*----13----13----13----13-|----13----13----13----13-*|
Bb|*-------------------------|-------------------------*|
 F|--------------------------|--------------------------|
Bb|--------------------------|--------------------------|


   Verse One:
 C|--------------------------|---------------------------|
 G|--------------------------|---------------------------|
Eb|*------------------------*|*-------------------------*|
Bb|*------------------------*|*---------6--6--6---------*|
 F|--------------------------|----------5--5--5----------|
Bb|--------------------------|--6-0---0---0--0-----------|



   Pre-Chorus:
 C|-------------------|------------------|------------------|-------------------|
 G|-------------------|------------------|------------------|-------------------|
Eb|-------------------|------------------|------------------|-------------------|
Bb|-------------------|------------------|------------------|-------------------|
 F|---------------5---|--------------5---|--------------5---|-----5-8------5-7--|
Bb|--0-0-5-7--0-0---8-|-0-0-5-7--0-0---8-|-0-0-5-7--0-0---8-|-0-0------0-0------|
    PM...    PM...     PM...    PM...     PM...    PM...     PM...    PM...

 C|-------------------|------------------|------------------|-------------------|
 G|-------------------|------------------|------------------|-------------------|
Eb|-------------------|------------------|------------------|-------------------|
Bb|-------------------|------------------|------------------|-------------------|
 F|---------------5---|--------------5---|--------------5---|---0--3-3-5-5-6-6--|
Bb|--0-0-5-7--0-0---8-|-0-0-5-7--0-0---8-|-0-0-5-7--0-0---8-|-0-0--3-3-5-5-6-6--|
    PM...    PM...     PM...    PM...     PM...    PM...     PM... 


   Chorus:
 C|-------------------------|------------------------|-----------------------|------------------------|
 G|-------------------------|------------------------|-----------------------|------------------------|
Eb|*------------------------|------------------------|-----------------------|-----------------------*|
Bb|*-0-0--13-12(12)-0-12-13-|-0-0--13-12(12)-0-12-13-|-0-0--12-10(10)-0-9-10-|-0-0--12-10(10)-0-9-10-*|
 F|--0-0--13-12(12)-0-12-13-|-0-0--13-12(12)-0-12-13-|-0-0--12-10(10)-0-9-10-|-0-0--12-10(10)-0-9-10--|
Bb|--0-0--13-12(12)-0-12-13-|-0-0--13-12(12)-0-12-13-|-0-0--12-10(10)-0-9-10-|-0-0--12-10(10)-0-9-10--|

 C|-------------------------|------------------------|-----------------------|------------------------|
 G|-------------------------|------------------------|-----------------------|------------------------|
Eb|-------------------------|------------------------|-----------------------|------------------------|
Bb|--8-8-8-8-8-8-8-8-8-8-8--|-5-5-5-5-5-5-5-5-5-5-5--|-8-8-8-8-8-8-8-8-8-8-8-|-5-5-5-5-5-5-6-6-6-6-6--|
 F|--8-8-8-8-8-8-8-8-8-8-8--|-5-5-5-5-5-5-5-5-5-5-5--|-8-8-8-8-8-8-8-8-8-8-8-|-5-5-5-5-5-5-6-6-6-6-6--|
Bb|--8-8-8-8-8-8-8-8-8-8-8--|-5-5-5-5-5-5-5-5-5-5-5--|-8-8-8-8-8-8-8-8-8-8-8-|-5-5-5-5-5-5-6-6-6-6-6--|


  [Repeat Pre-Verse]


   Verse Two:
 C|--------------------------|--------------------------|
 G|--------------------------|--------------------------|
Eb|*-------------------------|-------------------------*|
Bb|*---------6--6--6---------|---------6--6--6---------*|
 F|----------5--5--5---------|---------5--5--5----------|
Bb|--6-0---0---0--0----------|-6-0---0---0--0-----------|


  [Repeat Chorus]


   Bridge:
 C|-----------------------------------|----------------------------------------|
 G|-----------------------------------|----------------------------------------|
Eb|*----------------------------------|---------------------------------------*|
Bb|*-6-6-6-6-6-6-6-6-6-6-6-6-6----3-3-|-6-------------------------------------*|
 F|--5-5-5-5-5-5-5-5-5-5-5-5-5----3-3-|-5-----------8-------------8------------|
Bb|-(0-0-0-0-0-0-0-0-0-0-0-0-0)---3-3-|-0----8-10-----11---8-10-----11---8-10--|


   Chorus/Outro:
 C|-------------------------|------------------------|-----------------------|--------------------(x3)|
 G|-------------------------|------------------------|-----------------------|------------------------|
Eb|*------------------------|------------------------|-----------------------|-----------------------*|
Bb|*-0-0--13-12(12)-0-12-13-|-0-0--13-12(12)-0-12-13-|-0-0--12-10(10)-0-9-10-|-0-0--12-10(10)-0-9-10-*|
 F|--0-0--13-12(12)-0-12-13-|-0-0--13-12(12)-0-12-13-|-0-0--12-10(10)-0-9-10-|-0-0--12-10(10)-0-9-10--|
Bb|--0-0--13-12(12)-0-12-13-|-0-0--13-12(12)-0-12-13-|-0-0--12-10(10)-0-9-10-|-0-0--12-10(10)-0-9-10--|

 C|--------------------------|----------------------------------|
 G|--------------------------|----------------------------------|
Eb|--------------------------|----------------------------------|
Bb|----------6--6--6---------|---------6--6--6------------------|
 F|--6-0-----5--5--5-3-3-3/5-|-6-0-----5--5--5---3-3-6-6-6-3-5--|
Bb|--6-0---0---0--0--3-3-3/5-|-6-0---0---0--0--0-3-3-6-6-6-3-5--|



That's how I've been playing it. Timing is roughly indicated but you'll still need 
to listen to the track
for the specifics in some of the riffs. Also, for some of the single note passages 
it sounds like Anthony
will occasionally add the 5th. That's about it so hope you all enjoy. God bless!
Tap to rate this tab
# A B C D E F G H I J K L M N O P Q R S T U V W X Y Z