Song name
# A B C D E F G H I J K L M N O P Q R S T U V W X Y Z

Red - Glass House tab

----------------------------------------------------------------------------
                             Glass House
                                Red
----------------------------------------------------------------------------

Red is one of the first bands I ever started listening to and is one of my favorite
Christian bands. Sure, they have changed over the years, but I found that most of my
favorite bands that have “Soften up” still have the same spark that I loved about them. 
This song is a great example of that phenomenon. Enjoy!

Username: dkm817 (same on X box live)
Youtube Cover: http://www.youtube.com/watch?v=Qr81W5fW3mA
Email: guitardrums@rockfan.com

Guitar 1 Rhythmic (A  E  A  D  F# B  )
Guitar 2 Lead     (A  E  A  D  F# B  )

NOTE: This was exported off of guitar pro.

Guitar 1

       PM  PM  PM  PM  PM  PM  PM  PM     PM  PM  PM  PM  PM  PM  PM  PM
       E   E   E   E   E   E   E   E      E   E   E   E   E   E   E   E
B ||----------------------------------|----------------------------------|
F#||------------------------------15--|----------------------------------|
D ||--17--14--17--14--17--14--17------|--16--12--16--12--16--12--16--12--|
A ||----------------------------------|----------------------------------|
E ||----------------------------------|----------------------------------|
A ||----------------------------------|----------------------------------|


   PM  PM  PM  PM  PM  PM  PM  PM     PM  PM  PM  PM  PM  PM  PM  PM
   E   E   E   E   E   E   E   E      E   E   E   E   E   E   E   E
----------------------------------|----------------------------------|
----------------------------------|----------------------------------|
--16--12--16--12--16--12--16--12--|--14------14------14------14------|
----------------------------------|------12------12------12------12--|
----------------------------------|----------------------------------|
----------------------------------|----------------------------------|


   PM  PM  PM  PM  PM  PM  PM  PM     PM  PM  PM  PM  PM  PM  PM  PM
   E   E   E   E   E   E   E   E      E   E   E   E   E   E   E   E
----------------------------------|----------------------------------|
------------------------------15--|----------------------------------|
--17--14--17--14--17--14--17------|--16--12--16--12--16--12--16--12--|
----------------------------------|----------------------------------|
----------------------------------|----------------------------------|
----------------------------------|----------------------------------|


   PM  PM  PM  PM  PM  PM  PM  PM     PM  PM  PM  PM  PM  PM  PM  PM
   E   E   E   E   E   E   E   E      E   E   E   E   E   E   E   E
----------------------------------|----------------------------------|
----------------------------------|----------------------------------|
--16--12--16--12--16--12--16--12--|--14------14------14------14------|
----------------------------------|------12------12------12------12--|
----------------------------------|----------------------------------|
----------------------------------|----------------------------------|


  E  E  E  E  E  E  E  E     E  E  E  E  E  E  E  E
--------------------------|--------------------------|
--------------------------|--------------------------|
--------------------------|--9--9--9--9--9--9--9--9--|
--7--7--7--7--7--7--7--7--|--9--9--9--9--9--9--9--9--|
--7--7--7--7--7--7--7--7--|--7--7--7--7--7--7--7--7--|
--7--7--7--7--7--7--7--7--|--------------------------|


  E  E  E  E  E  E  E  E     E  E  E  E  E  E  E  E
--------------------------|--------------------------|
--------------------------|--------------------------|
--------------------------|--7--7--7--7--7--7--7--7--|
--5--5--5--5--5--5--5--5--|--7--7--7--7--7--7--7--7--|
--5--5--5--5--5--5--5--5--|--5--5--5--5--5--5--5--5--|
--5--5--5--5--5--5--5--5--|--------------------------|


  E  E  E  E  E  E  E  E     E  E  E  E  E  E  E  E
--------------------------|--------------------------|
--------------------------|--------------------------|
--------------------------|--9--9--9--9--9--9--9--9--|
--7--7--7--7--7--7--7--7--|--9--9--9--9--9--9--9--9--|
--7--7--7--7--7--7--7--7--|--7--7--7--7--7--7--7--7--|
--7--7--7--7--7--7--7--7--|--------------------------|


                                                        ^
  E  E  E  E  E  E  E  E     E  E  E  E  E  E  E  E     W
--------------------------|--------------------------|--0----------------|
--------------------------|--------------------------|--0----------------|
--------------------------|--7--7--7--7--7--7--7--7--|--2----------------|
--5--5--5--5--5--5--5--5--|--7--7--7--7--7--7--7--7--|--2----------------|
--5--5--5--5--5--5--5--5--|--5--5--5--5--5--5--5--5--|--0----------------|
--5--5--5--5--5--5--5--5--|--------------------------|-------------------|


                      ^                                       ^
  W                   W                   W                   W
--L----------------|--3----------------|--L----------------|--0----------------|
--L----------------|--3----------------|--L----------------|--0----------------|
-------------------|--0----------------|--L----------------|--2----------------|
--L----------------|--0----------------|--L----------------|--2----------------|
--L----------------|-------------------|-------------------|--0----------------|
--2----------------|-------------------|-------------------|-------------------|


                      ^                                       ^
  W                   W                   W                   W
--L----------------|--3----------------|--L----------------|--0----------------|
--L----------------|--3----------------|--L----------------|--0----------------|
-------------------|--0----------------|--L----------------|--2----------------|
--L----------------|--0----------------|--L----------------|--2----------------|
--L----------------|-------------------|-------------------|--0----------------|
--2----------------|-------------------|-------------------|-------------------|


                      ^                                       ^
  W                   W                   W                   W
--L----------------|--3----------------|--L----------------|--0----------------|
--L----------------|--3----------------|--L----------------|--0----------------|
-------------------|--0----------------|--L----------------|--5----------------|
--L----------------|--0----------------|--L----------------|--5----------------|
--L----------------|-------------------|-------------------|--3----------------|
--2----------------|-------------------|-------------------|-------------------|


                      ^
  W                   W                   W
--L----------------|--0----------------|-------------------|
--L----------------|--0----------------|-------------------|
--L----------------|--4----------------|-------------------|
--L----------------|--4----------------|-------------------|
--L----------------|--2----------------|-------------------|
-------------------|-------------------|-------------------|


  E  E  E  E  E  E  E  E     E  E  E  E  E  E  E  E
--------------------------|--------------------------|
--------------------------|--------------------------|
--------------------------|--9--9--9--9--9--9--9--9--|
--7--7--7--7--7--7--7--7--|--9--9--9--9--9--9--9--9--|
--7--7--7--7--7--7--7--7--|--7--7--7--7--7--7--7--7--|
--7--7--7--7--7--7--7--7--|--------------------------|


  E  E  E  E  E  E  E  E     E  E  E  E  E  E  E  E
--------------------------|--------------------------|
--------------------------|--------------------------|
--------------------------|--7--7--7--7--7--7--7--7--|
--5--5--5--5--5--5--5--5--|--7--7--7--7--7--7--7--7--|
--5--5--5--5--5--5--5--5--|--5--5--5--5--5--5--5--5--|
--5--5--5--5--5--5--5--5--|--------------------------|


  E  E  E  E  E  E  E  E     E  E  E  E  E  E  E  E
--------------------------|--------------------------|
--------------------------|--------------------------|
--------------------------|--9--9--9--9--9--9--9--9--|
--7--7--7--7--7--7--7--7--|--9--9--9--9--9--9--9--9--|
--7--7--7--7--7--7--7--7--|--7--7--7--7--7--7--7--7--|
--7--7--7--7--7--7--7--7--|--------------------------|


  E  E  E  E  E  E  E  E     E  E  E  E  E  E  E  E
--------------------------|--------------------------|
--------------------------|--------------------------|
--------------------------|--7--7--7--7--7--7--7--7--|
--5--5--5--5--5--5--5--5--|--7--7--7--7--7--7--7--7--|
--5--5--5--5--5--5--5--5--|--5--5--5--5--5--5--5--5--|
--5--5--5--5--5--5--5--5--|--------------------------|


  E  E  E  E  E  E  E  E     E  E  E  E  E  E  E  E
--------------------------|--------------------------|
--------------------------|--------------------------|
--------------------------|--9--9--9--9--9--9--9--9--|
--7--7--7--7--7--7--7--7--|--9--9--9--9--9--9--9--9--|
--7--7--7--7--7--7--7--7--|--7--7--7--7--7--7--7--7--|
--7--7--7--7--7--7--7--7--|--------------------------|


  E  E  E  E  E  E  E  E     E  E  E  E  E  E  E  E
--------------------------|--------------------------|
--------------------------|--------------------------|
--------------------------|--7--7--7--7--7--7--7--7--|
--5--5--5--5--5--5--5--5--|--7--7--7--7--7--7--7--7--|
--5--5--5--5--5--5--5--5--|--5--5--5--5--5--5--5--5--|
--5--5--5--5--5--5--5--5--|--------------------------|


  E  E  E  E  E  E  E  E     E  E  E  E  E  E  E  E
--------------------------|--------------------------|
--------------------------|--------------------------|
--------------------------|--9--9--9--9--9--9--9--9--|
--7--7--7--7--7--7--7--7--|--9--9--9--9--9--9--9--9--|
--7--7--7--7--7--7--7--7--|--7--7--7--7--7--7--7--7--|
--7--7--7--7--7--7--7--7--|--------------------------|


  E  E  E  E  E  E  E  E     E  E  E  E  E  E  E  E     W
--------------------------|--------------------------|-------------------|
--------------------------|--------------------------|--3----------------|
--------------------------|--7--7--7--7--7--7--7--7--|--2----------------|
--5--5--5--5--5--5--5--5--|--7--7--7--7--7--7--7--7--|--0----------------|
--5--5--5--5--5--5--5--5--|--5--5--5--5--5--5--5--5--|--0----------------|
--5--5--5--5--5--5--5--5--|--------------------------|--0----------------|


  W
-------------------|-------------------|-------------------|
--L----------------|-------------------|-------------------|
--L----------------|-------------------|-------------------|
--L----------------|-------------------|-------------------|
--L----------------|-------------------|-------------------|
--L----------------|-------------------|-------------------|


     PM PM    PM PM             PM PM    PM PM
  E  E  E  E  E  E  E  E     E  E  E  E  E  E  E  E
--------------------------|--------------------------|
--------------------------|--------------------------|
--------------------------|--------------------------|
--------------------------|--------------------------|
--------------------------|--------------------------|
--7--7--7--7--7--7--7--7--|--2--2--2--2--2--2--2--2--|


     PM PM    PM PM             PM PM    PM PM
  E  E  E  E  E  E  E  E     E  E  E  E  E  E  E  E
--------------------------|--------------------------|
--------------------------|--------------------------|
--------------------------|--------------------------|
--------------------------|--------------------------|
--------------------------|--------------------------|
--5--5--5--5--5--5--5--5--|--0--0--0--0--0--0--0--0--|


     PM PM    PM PM             PM PM    PM PM
  E  E  E  E  E  E  E  E     E  E  E  E  E  E  E  E
--------------------------|--------------------------|
--------------------------|--------------------------|
--------------------------|--------------------------|
--------------------------|--------------------------|
--------------------------|--------------------------|
--7--7--7--7--7--7--7--7--|--2--2--2--2--2--2--2--2--|


     PM PM    PM PM             PM PM    PM PM
  E  E  E  E  E  E  E  E     E  E  E  E  E  E  E  E
--------------------------|--------------------------|
--------------------------|--------------------------|
--------------------------|--------------------------|
--------------------------|--------------------------|
--------------------------|--------------------------|
--5--5--5--5--5--5--5--5--|--0--0--0--0--0--0--0--0--|


       PM  PM      PM  PM  PM  PM             PM      PM  PM  PM  PM
   E   E   E   E   E   E   E   E      E   E   E   E   E   E   E   E
----------------------------------|----------------------------------|
----------------------------------|----------------------------------|
----------------------------------|----------------------------------|
----------------------------------|----------------------------------|
----------------------------------|----------------------------------|
--10--10--10--10--10--10--10--10--|--10--10--10--10--10--10--10--10--|


     PM PM    PM PM PM PM
  E  E  E  E  E  E  E  E     E  E  E  E  E  E  E  E
--------------------------|--------------------------|
--------------------------|--------------------------|
--------------------------|--------------------------|
--------------------------|--------------------------|
--------------------------|--------------------------|
--9--9--9--9--9--9--9--9--|--4--4--4--5--5--5--4--4--|


  E  E  E  E  E  E  E  E     E  E  E  E  E  E  E  E
--------------------------|--------------------------|
--------------------------|--------------------------|
--------------------------|--9--9--9--9--9--9--9--9--|
--7--7--7--7--7--7--7--7--|--9--9--9--9--9--9--9--9--|
--7--7--7--7--7--7--7--7--|--7--7--7--7--7--7--7--7--|
--7--7--7--7--7--7--7--7--|--------------------------|


  E  E  E  E  E  E  E  E     E  E  E  E  E  E  E  E
--------------------------|--------------------------|
--------------------------|--------------------------|
--------------------------|--7--7--7--7--7--7--7--7--|
--5--5--5--5--5--5--5--5--|--7--7--7--7--7--7--7--7--|
--5--5--5--5--5--5--5--5--|--5--5--5--5--5--5--5--5--|
--5--5--5--5--5--5--5--5--|--------------------------|


  E  E  E  E  E  E  E  E     E  E  E  E  E  E  E  E
--------------------------|--------------------------|
--------------------------|--------------------------|
--------------------------|--9--9--9--9--9--9--9--9--|
--7--7--7--7--7--7--7--7--|--9--9--9--9--9--9--9--9--|
--7--7--7--7--7--7--7--7--|--7--7--7--7--7--7--7--7--|
--7--7--7--7--7--7--7--7--|--------------------------|


  E  E  E  E  E  E  E  E     E  E  E  E  E  E  E  E
--------------------------|--------------------------|
--------------------------|--------------------------|
--------------------------|--7--7--7--7--7--7--7--7--|
--5--5--5--5--5--5--5--5--|--7--7--7--7--7--7--7--7--|
--5--5--5--5--5--5--5--5--|--5--5--5--5--5--5--5--5--|
--5--5--5--5--5--5--5--5--|--------------------------|


  E  E  E  E  E  E  E  E     E  E  E  E  E  E  E  E
--------------------------|--------------------------|
--------------------------|--------------------------|
--------------------------|--9--9--9--9--9--9--9--9--|
--7--7--7--7--7--7--7--7--|--9--9--9--9--9--9--9--9--|
--7--7--7--7--7--7--7--7--|--7--7--7--7--7--7--7--7--|
--7--7--7--7--7--7--7--7--|--------------------------|


  E  E  E  E  E  E  E  E     E  E  E  E  E  E  E  E
--------------------------|--------------------------|
--------------------------|--------------------------|
--------------------------|--7--7--7--7--7--7--7--7--|
--5--5--5--5--5--5--5--5--|--7--7--7--7--7--7--7--7--|
--5--5--5--5--5--5--5--5--|--5--5--5--5--5--5--5--5--|
--5--5--5--5--5--5--5--5--|--------------------------|


  E  E  E  E  E  E  E  E     E  E  E  E  E  E  E  E
--------------------------|--------------------------|
--------------------------|--------------------------|
--------------------------|--9--9--9--9--9--9--9--9--|
--7--7--7--7--7--7--7--7--|--9--9--9--9--9--9--9--9--|
--7--7--7--7--7--7--7--7--|--7--7--7--7--7--7--7--7--|
--7--7--7--7--7--7--7--7--|--------------------------|


  E  E  E  E  E  E  E  E     E  E  E  E  E  E  E  E
--------------------------|--------------------------|
--------------------------|--------------------------|
--------------------------|--7--7--7--7--7--7--7--7--|
--5--5--5--5--5--5--5--5--|--7--7--7--7--7--7--7--7--|
--5--5--5--5--5--5--5--5--|--5--5--5--5--5--5--5--5--|
--5--5--5--5--5--5--5--5--|--------------------------|


  E  E  E  E  E  E  E  E     E  E  E  E  E  E  E  E
--------------------------|--------------------------|
--------------------------|--------------------------|
--------------------------|--------------------------|
--7--7--7--7--7--7--7--7--|--7--7--7--7--7--7--7--7--|
--7--7--7--7--7--7--7--7--|--7--7--7--7--7--7--7--7--|
--7--7--7--7--7--7--7--7--|--7--7--7--7--7--7--7--7--|


  E  E  E  E  E  E  E  E     E  E  E  E  E  E  E  E
--------------------------|--------------------------|
--------------------------|--------------------------|
--------------------------|--------------------------|
--2--2--2--4--4--5--5--0--|--L--0--0--4--5--4--0--0--|
--2--2--2--4--4--5--5--0--|--L--0--0--4--5--4--0--0--|
--2--2--2--4--4--5--5--0--|--L--0--0--4--5--4--0--0--|


  E  E  E  E  E  E  E  E     E  E  E  E  E  E  E  E
--------------------------|--------------------------|
--------------------------|--------------------------|
--------------------------|--------------------------|
--7--7--7--7--7--7--7--7--|--7--7--7--7--7--7--7--7--|
--7--7--7--7--7--7--7--7--|--7--7--7--7--7--7--7--7--|
--7--7--7--7--7--7--7--7--|--7--7--7--7--7--7--7--7--|


                                               PM PM
  E  E  E  E  E  E  E  E     E  E  E  E  E  E  E  E
--------------------------|--------------------------|
--------------------------|--------------------------|
--------------------------|--------------------------|
--2--2--2--2-----2-----4--|--5--4--0--5--4--0--0--0--|
--2--2--2--2-----2-----4--|--5--4--0--5--4--0--0--0--|
--2--2--2--2-----2-----4--|--5--4--0--5--4--0--0--0--|


  E  E  E  E  E  E  E  E     E  E  E  E  E  E  E  E
--------------------------|--------------------------|
--------------------------|--------------------------|
--------------------------|--------------------------|
--7--7--7--7--7--7--7--7--|--7--7--7--7--7--7--7--7--|
--7--7--7--7--7--7--7--7--|--7--7--7--7--7--7--7--7--|
--7--7--7--7--7--7--7--7--|--7--7--7--7--7--7--7--7--|


  E  E  E  E  E  E  E  E     E  E  E  E  E  E  E  E
--------------------------|--------------------------|
--------------------------|--------------------------|
--------------------------|--------------------------|
--2--2--2--4--4--5--5--0--|--L--0--0--4--5--4--0--0--|
--2--2--2--4--4--5--5--0--|--L--0--0--4--5--4--0--0--|
--2--2--2--4--4--5--5--0--|--L--0--0--4--5--4--0--0--|


  E  E  E  E  E  E  E  E     E  E  E  E  E  E  E  E
--------------------------|--------------------------|
--------------------------|--------------------------|
--5--5--5--5--5--5--5--5--|--5--5--5--5--5--5--5--5--|
--5--5--5--5--5--5--5--5--|--5--5--5--5--5--5--5--5--|
--3--3--3--3--3--3--3--3--|--3--3--3--3--3--3--3--3--|
--------------------------|--------------------------|


  E  E  E  E  E  E  E  E     E  E  E  E  E  E  E  E
--------------------------|--------------------------|-----|-----|
--------------------------|--------------------------|-----|-----|
--4--4--4--4--4--4--4--4--|--4--4--4--4--4--4--4--4--|-----|-----|
--4--4--4--4--4--4--4--4--|--4--4--4--4--4--4--4--4--|-----|-----|
--2--2--2--2--2--2--2--2--|--2--2--2--2--2--2--2--2--|-----|-----|
--------------------------|--------------------------|-----|-----|


  E  E  E  E  E  E  E  E     E  E  E  E  E  E  E  E
--------------------------|--------------------------|
--------------------------|--------------------------|
--------------------------|--7--7--7--7--7--7--7--7--|
--5--5--5--5--5--5--5--5--|--7--7--7--7--7--7--7--7--|
--5--5--5--5--5--5--5--5--|--5--5--5--5--5--5--5--5--|
--5--5--5--5--5--5--5--5--|--------------------------|


  E  E  E  E  E  E  E  E     E  E  E  E  E  E  E  E
--------------------------|--------------------------|
--------------------------|--------------------------|
--------------------------|--9--9--9--9--9--9--9--9--|
--7--7--7--7--7--7--7--7--|--9--9--9--9--9--9--9--9--|
--7--7--7--7--7--7--7--7--|--7--7--7--7--7--7--7--7--|
--7--7--7--7--7--7--7--7--|--------------------------|


  E  E  E  E  E  E  E  E     E  E  E  E  E  E  E  E
--------------------------|--------------------------|
--------------------------|--------------------------|
--------------------------|--7--7--7--7--7--7--7--7--|
--5--5--5--5--5--5--5--5--|--7--7--7--7--7--7--7--7--|
--5--5--5--5--5--5--5--5--|--5--5--5--5--5--5--5--5--|
--5--5--5--5--5--5--5--5--|--------------------------|


  E  E  E  E  E  E  E  E     E  E  E  E  E  E  E  E
--------------------------|--------------------------|
--------------------------|--------------------------|
--------------------------|--9--9--9--9--9--9--9--9--|
--7--7--7--7--7--7--7--7--|--9--9--9--9--9--9--9--9--|
--7--7--7--7--7--7--7--7--|--7--7--7--7--7--7--7--7--|
--7--7--7--7--7--7--7--7--|--------------------------|


  E  E  E  E  E  E  E  E     E  E  E  E  E  E  E  E
--------------------------|--------------------------|
--------------------------|--------------------------|
--------------------------|--7--7--7--7--7--7--7--7--|
--5--5--5--5--5--5--5--5--|--7--7--7--7--7--7--7--7--|
--5--5--5--5--5--5--5--5--|--5--5--5--5--5--5--5--5--|
--5--5--5--5--5--5--5--5--|--------------------------|


  E  E  E  E  E  E  E  E     E  E  E  E  E  E  E  E
--------------------------|--------------------------|
--------------------------|--------------------------|
--------------------------|--9--9--9--9--9--9--9--9--|
--7--7--7--7--7--7--7--7--|--9--9--9--9--9--9--9--9--|
--7--7--7--7--7--7--7--7--|--7--7--7--7--7--7--7--7--|
--7--7--7--7--7--7--7--7--|--------------------------|


  E  E  E  E  E  E  E  E     E  E  E  E  E  E  E  E     E  E  E  E  E  Q    E
--------------------------|--------------------------|--8-----L--7--L--3----L--|
--------------------------|--------------------------|-------------------------|
--------------------------|--7--7--7--7--7--7--7--7--|-------------------------|
--5--5--5--5--5--5--5--5--|--7--7--7--7--7--7--7--7--|-------------------------|
--5--5--5--5--5--5--5--5--|--5--5--5--5--5--5--5--5--|--0--7--0-------------L--|
--5--5--5--5--5--5--5--5--|--------------------------|-------------------------|


  E  E  E  E  E  Q    E     E  E  E  E  E  Q    E     E  E  E  E  E  E  E  E
--3-----L--5--L--7----L--|-----------5--L--7----L--|--2-----L--3--L--2--0-----|
-------------------------|--8-----L----------------|-----------------------3--|
-------------------------|-------------------------|--------------------------|
--------2-------------L--|--------5-------------L--|--------0--------------L--|
-----2----------------L--|-----5----------------L--|-----0-----------------L--|
--2-------------------L--|--5-------------------L--|--0--------------------L--|


  E  E  E  E  E  Q    E     E  E  E  E  E  Q    E     E  E  E  E  E  Q    E
--8-----L--7--L--3----L--|--3-----L--5--L--7----L--|-----------5--L--7----L--|
-------------------------|-------------------------|--8-----L----------------|
-------------------------|-------------------------|-------------------------|
-------------------------|--------2-------------L--|--------5-------------L--|
--0--7--0-------------L--|-----2----------------L--|-----5----------------L--|
-------------------------|--2-------------------L--|--5-------------------L--|


  E  E  E  E  E  E  E  E     W                   W
--2-----L--3--L--2--0-----|-------------------|-------------------||
-----------------------3--|-------------------|-------------------||
--------------------------|-------------------|-------------------||
--------0--------------L--|-------------------|-------------------||
-----0-----------------L--|--0----------------|--L----------------||
--0--------------------L--|-------------------|-------------------||

Guitar 2

                                       PM  PM  PM  PM  PM  PM  PM  PM
                                       E   E   E   E   E   E   E   E
B ||-------|-------|-------|-------|----------------------------------|
F#||-------|-------|-------|-------|------------------------------15--|
D ||-------|-------|-------|-------|--17--14------17--14------17------|
A ||-------|-------|-------|-------|----------14----------14----------|
E ||-------|-------|-------|-------|----------------------------------|
A ||-------|-------|-------|-------|----------------------------------|


   PM  PM  PM  PM  PM  PM  PM  PM     PM  PM  PM  PM  PM  PM  PM  PM
   E   E   E   E   E   E   E   E      E   E   E   E   E   E   E   E
----------------------------------|----------------------------------|
----------------------------------|----------------------------------|
--16--12------16--12------16--12--|--16--12------16--12------16--12--|
----------14----------14----------|----------12----------12----------|
----------------------------------|----------------------------------|
----------------------------------|----------------------------------|


   PM  PM  PM  PM  PM  PM  PM  PM
   E   E   E   E   E   E   E   E      E  E   E  E   E  E   E   E
----------------------------------|-------------------------------|
----------------------------------|--17-----17-----17-----17--19--|
--14--11------14--11------14--11--|-------------------------------|
----------12----------12----------|-------------------------------|
----------------------------------|-------------------------------|
----------------------------------|-------------------------------|


   E  E   E  E   E   E   E   E      E  E   E  E   E  E   E   E
--------------------------------|-------------------------------|
--20-----20-----20--19--17------|-------------------------------|
----------------------------19--|--16-----16-----16-----16--19--|
--------------------------------|-------------------------------|
--------------------------------|-------------------------------|
--------------------------------|-------------------------------|


   E  E   E  E   E  E   E  E      E  E   E  E   E  E   E   E
------------------------------|-------------------------------|
------------------------------|--17-----17-----17-----17--19--|
--14-----14-----14-----14-----|-------------------------------|
------------------------------|-------------------------------|
------------------------------|-------------------------------|
------------------------------|-------------------------------|


   E  E   E  E   E   E   E   E      E  E   E  E   E  E   E   E
--------------------------------|-------------------------------|
--20-----20-----20--19--17------|-------------------------------|
----------------------------19--|--16-----16-----16-----16--19--|
--------------------------------|-------------------------------|
--------------------------------|-------------------------------|
--------------------------------|-------------------------------|


   E  E   E  E   E  E   E  E
------------------------------|-----|-----|-----|-----|
------------------------------|-----|-----|-----|-----|
--14-----14-----14-----14-----|-----|-----|-----|-----|
------------------------------|-----|-----|-----|-----|
------------------------------|-----|-----|-----|-----|
------------------------------|-----|-----|-----|-----|


   PM  PM  PM  PM  PM  PM  PM  PM     PM  PM  PM  PM  PM  PM  PM  PM
   E   E   E   E   E   E   E   E      E   E   E   E   E   E   E   E
----------------------------------|----------------------------------|
----------------------------------|----------------------------------|
--17--14------17--14------17--14--|--16--12------16--12------16--12--|
----------14----------14----------|----------14----------14----------|
----------------------------------|----------------------------------|
----------------------------------|----------------------------------|


   PM  PM  PM  PM  PM  PM  PM  PM     PM  PM  PM  PM  PM  PM  PM  PM
   E   E   E   E   E   E   E   E      E   E   E   E   E   E   E   E
----------------------------------|----------------------------------|
----------------------------------|----------------------------------|
--16--12------16--12------16--12--|--16--12------16--12------14--11--|
----------12----------12----------|----------12----------12----------|
----------------------------------|----------------------------------|
----------------------------------|----------------------------------|


   PM  PM  PM  PM  PM  PM  PM  PM     PM  PM  PM  PM  PM  PM  PM  PM
   E   E   E   E   E   E   E   E      E   E   E   E   E   E   E   E
----------------------------------|----------------------------------|
----------------------------------|----------------------------------|
--17--14------17--14------17--14--|--16--12------16--12------16--12--|
----------14----------14----------|----------14----------14----------|
----------------------------------|----------------------------------|
----------------------------------|----------------------------------|


   PM  PM  PM  PM  PM  PM  PM  PM     PM  PM  PM  PM  PM  PM  PM  PM
   E   E   E   E   E   E   E   E      E   E   E   E   E   E   E   E
----------------------------------|----------------------------------|
----------------------------------|----------------------------------|
--16--12------16--12------16--12--|--14--11------14--11------14--11--|
----------12----------12----------|----------12----------12----------|
----------------------------------|----------------------------------|
----------------------------------|----------------------------------|


   PM  PM  PM  PM  PM  PM  PM  PM     PM  PM  PM  PM  PM  PM  PM  PM
   E   E   E   E   E   E   E   E      E   E   E   E   E   E   E   E
----------------------------------|----------------------------------|
--19--19--20--20--19--19--17--17--|--17--17--17--17--17--17--17--17--|
----------------------------------|----------------------------------|
----------------------------------|----------------------------------|
----------------------------------|----------------------------------|
----------------------------------|----------------------------------|


   PM  PM  PM  PM  PM  PM  PM  PM
   E   E   E   E   E   E   E   E     W
----------------------------------|-------------------|
--16--16--17--17--19--19--17--17--|-------------------|
----------------------------------|-------------------|
----------------------------------|-------------------|
----------------------------------|-------------------|
----------------------------------|-------------------|


   E   E   E   E   E   E   E   E      E   E   E   E   E   E   E   E
----------------------------------|----------------------------------|
--10--10--10--10--10--10--10--10--|--12--12--12--13--13--13--12--12--|
---x---x---x---x---x---x---x---x--|---x---x---x---x---x---x---x---x--|
---7---7---7---7---7---7---7---7--|---9---9---9--10--10--10---9---9--|
----------------------------------|----------------------------------|
----------------------------------|----------------------------------|


  E  E  E  E  E  E  E  E     E  E  E  E  E  E  E  E
--------------------------|--------------------------|
--8--8--8--8--8--8--8--8--|--7--7--7--7--7--7--7--7--|
--x--x--x--x--x--x--x--x--|--x--x--x--x--x--x--x--x--|
--5--5--5--5--5--5--5--5--|--4--4--4--4--4--4--4--4--|
--------------------------|--------------------------|
--------------------------|--------------------------|


   E   E   E   E   E   E   E   E      E   E   E   E   E   E   E   E
----------------------------------|----------------------------------|
--10--10--10--10--10--10--10--10--|--12--12--12--13--13--13--12--12--|
---x---x---x---x---x---x---x---x--|---x---x---x---x---x---x---x---x--|
---7---7---7---7---7---7---7---7--|---9---9---9--10--10--10---9---9--|
----------------------------------|----------------------------------|
----------------------------------|----------------------------------|


  E  E  E  E  E  E  E  E     E  E  E  E  E  E  E  E
--------------------------|--------------------------|
--8--8--8--8--8--8--8--8--|--7--7--7--7--7--7--7--7--|
--x--x--x--x--x--x--x--x--|--x--x--x--x--x--x--x--x--|
--5--5--5--5--5--5--5--5--|--4--4--4--4--4--4--4--4--|
--------------------------|--------------------------|
--------------------------|--------------------------|


   E   E   E   E   E   E   E   E      E   E   E   E   E   E   E   E
----------------------------------|----------------------------------|
--10--10--10--10--10--10--10--10--|--12--12--12--13--13--13--12--12--|
---x---x---x---x---x---x---x---x--|---x---x---x---x---x---x---x---x--|
---7---7---7---7---7---7---7---7--|---9---9---9--10--10--10---9---9--|
----------------------------------|----------------------------------|
----------------------------------|----------------------------------|


  E  E  E  E  E  E  E  E     E  E  E  E  E  E  E  E
--------------------------|--------------------------|
--8--8--8--8--8--8--8--8--|--7--7--7--7--7--7--7--7--|
--x--x--x--x--x--x--x--x--|--x--x--x--x--x--x--x--x--|
--5--5--5--5--5--5--5--5--|--4--4--4--4--4--4--4--4--|
--------------------------|--------------------------|
--------------------------|--------------------------|


   E   E   E   E   E   E   E   E      E   E   E   E   E   E   E   E
----------------------------------|----------------------------------|
--10--10--10--10--10--10--10--10--|--12--12--12--13--13--13--12--12--|
---x---x---x---x---x---x---x---x--|---x---x---x---x---x---x---x---x--|
---7---7---7---7---7---7---7---7--|---9---9---9--10--10--10---9---9--|
----------------------------------|----------------------------------|
----------------------------------|----------------------------------|


  E  E  E  E  E  E  E  E     E  E  E  E  E  E  E  E
--------------------------|--------------------------|
--8--8--8--8--8--8--8--8--|--7--7--7--7--7--7--7--7--|
--x--x--x--x--x--x--x--x--|--x--x--x--x--x--x--x--x--|
--5--5--5--5--5--5--5--5--|--4--4--4--4--4--4--4--4--|
--------------------------|--------------------------|
--------------------------|--------------------------|


   PM  PM  PM  PM  PM  PM  PM  PM     PM  PM  PM  PM  PM  PM  PM  PM
   E   E   E   E   E   E   E   E      E   E   E   E   E   E   E   E
----------------------------------|----------------------------------|
----------------------------------|----------------------------------|
--17--14------17--14------17--14--|--16--12------16--12------16--12--|
----------14----------14----------|----------14----------14----------|
----------------------------------|----------------------------------|
----------------------------------|----------------------------------|


   PM  PM  PM  PM  PM  PM  PM  PM     PM  PM  PM  PM  PM  PM  PM  PM
   E   E   E   E   E   E   E   E      E   E   E   E   E   E   E   E
----------------------------------|----------------------------------|
----------------------------------|----------------------------------|
--16--12------16--12------16--12--|--16--12------16--12------14--11--|
----------12----------12----------|----------12----------12----------|
----------------------------------|----------------------------------|
----------------------------------|----------------------------------|


   PM  PM  PM  PM  PM  PM  PM  PM     PM  PM  PM  PM  PM  PM  PM  PM
   E   E   E   E   E   E   E   E      E   E   E   E   E   E   E   E
----------------------------------|----------------------------------|
----------------------------------|----------------------------------|
--17--14------17--14------17--14--|--16--12------16--12------16--12--|
----------14----------14----------|----------14----------14----------|
----------------------------------|----------------------------------|
----------------------------------|----------------------------------|


   PM  PM  PM  PM  PM  PM  PM  PM     PM  PM  PM  PM  PM  PM  PM  PM
   E   E   E   E   E   E   E   E      E   E   E   E   E   E   E   E
----------------------------------|----------------------------------|
----------------------------------|----------------------------------|
--16--12------16--12------16--12--|--16--12------16--12------14--11--|
----------12----------12----------|----------12----------12----------|
----------------------------------|----------------------------------|
----------------------------------|----------------------------------|


   PM  PM  PM  PM  PM  PM  PM  PM     PM  PM  PM  PM  PM  PM  PM  PM
   E   E   E   E   E   E   E   E      E   E   E   E   E   E   E   E
----------------------------------|----------------------------------|
----------------------------------|----------------------------------|
--17--14------17--14------17--14--|--16--12------16--12------16--12--|
----------14----------14----------|----------14----------14----------|
----------------------------------|----------------------------------|
----------------------------------|----------------------------------|


   PM  PM  PM  PM  PM  PM  PM  PM     PM  PM  PM  PM  PM  PM  PM  PM
   E   E   E   E   E   E   E   E      E   E   E   E   E   E   E   E
----------------------------------|----------------------------------|
----------------------------------|----------------------------------|
--16--12------16--12------16--12--|--16--12------16--12------14--11--|
----------12----------12----------|----------12----------12----------|
----------------------------------|----------------------------------|
----------------------------------|----------------------------------|


   PM  PM  PM  PM  PM  PM  PM  PM     PM  PM  PM  PM  PM  PM  PM  PM
   E   E   E   E   E   E   E   E      E   E   E   E   E   E   E   E
----------------------------------|----------------------------------|
--19--19--20--20--19--19--17--17--|--17--17--17--17--17--17--17--17--|
----------------------------------|----------------------------------|
----------------------------------|----------------------------------|
----------------------------------|----------------------------------|
----------------------------------|----------------------------------|


   PM  PM  PM  PM  PM  PM  PM  PM     PM  PM  PM  PM
   E   E   E   E   E   E   E   E      E   E   E   E  E  E  E  E
----------------------------------|------------------------------|
--16--16--17--17--19--19--17--17--|--17--17--17--17--------------|
----------------------------------|------------------------------|
----------------------------------|------------------------------|
----------------------------------|------------------------------|
----------------------------------|------------------------------|


   E   E   E   E   E   E   E   E      E   E   E   E   E   E   E   E
----------------------------------|----------------------------------|
--10--10--10--10--10--10--10--10--|--12--12--12--13--13--13--12--12--|
---x---x---x---x---x---x---x---x--|---x---x---x---x---x---x---x---x--|
---7---7---7---7---7---7---7---7--|---9---9---9--10--10--10---9---9--|
----------------------------------|----------------------------------|
----------------------------------|----------------------------------|


  E  E  E  E  E  E  E  E     E  E  E  E  E  E  E  E
--------------------------|--------------------------|
--8--8--8--8--8--8--8--8--|--7--7--7--7--7--7--7--7--|
--x--x--x--x--x--x--x--x--|--x--x--x--x--x--x--x--x--|
--5--5--5--5--5--5--5--5--|--4--4--4--4--4--4--4--4--|
--------------------------|--------------------------|
--------------------------|--------------------------|


   E   E   E   E   E   E   E   E      E   E   E   E   E   E   E   E
----------------------------------|----------------------------------|
--10--10--10--10--10--10--10--10--|--12--12--12--13--13--13--12--12--|
---x---x---x---x---x---x---x---x--|---x---x---x---x---x---x---x---x--|
---7---7---7---7---7---7---7---7--|---9---9---9--10--10--10---9---9--|
----------------------------------|----------------------------------|
----------------------------------|----------------------------------|


  E  E  E  E  E  E  E  E     E  E  E  E  E  E  E  E
--------------------------|--------------------------|
--8--8--8--8--8--8--8--8--|--7--7--7--7--7--7--7--7--|
--x--x--x--x--x--x--x--x--|--x--x--x--x--x--x--x--x--|
--5--5--5--5--5--5--5--5--|--4--4--4--4--4--4--4--4--|
--------------------------|--------------------------|
--------------------------|--------------------------|


   E   E   E   E   E   E   E   E      E   E   E   E   E   E   E   E
----------------------------------|----------------------------------|
--10--10--10--10--10--10--10--10--|--12--12--12--13--13--13--12--12--|
---x---x---x---x---x---x---x---x--|---x---x---x---x---x---x---x---x--|
---7---7---7---7---7---7---7---7--|---9---9---9--10--10--10---9---9--|
----------------------------------|----------------------------------|
----------------------------------|----------------------------------|


  E  E  E  E  E  E  E  E     E  E  E  E  E  E  E  E
--------------------------|--------------------------|
--8--8--8--8--8--8--8--8--|--7--7--7--7--7--7--7--7--|
--x--x--x--x--x--x--x--x--|--x--x--x--x--x--x--x--x--|
--5--5--5--5--5--5--5--5--|--4--4--4--4--4--4--4--4--|
--------------------------|--------------------------|
--------------------------|--------------------------|


   E   E   E   E   E   E   E   E      E   E   E   E   E   E   E   E
----------------------------------|----------------------------------|
--10--10--10--10--10--10--10--10--|--12--12--12--13--13--13--12--12--|
---x---x---x---x---x---x---x---x--|---x---x---x---x---x---x---x---x--|
---7---7---7---7---7---7---7---7--|---9---9---9--10--10--10---9---9--|
----------------------------------|----------------------------------|
----------------------------------|----------------------------------|


  E  E  E  E  E  E  E  E     E  E  E  E  E  E  E  E
--------------------------|--------------------------|
--8--8--8--8--8--8--8--8--|--7--7--7--7--7--7--7--7--|
--x--x--x--x--x--x--x--x--|--x--x--x--x--x--x--x--x--|
--5--5--5--5--5--5--5--5--|--4--4--4--4--4--4--4--4--|
--------------------------|--------------------------|
--------------------------|--------------------------|


  E  E  E  E  E  E  E  E     E  E  E  E  E  E  E  E
--------------------------|--------------------------|
--------------------------|--------------------------|
--------------------------|--------------------------|
--7--7--7--7--7--7--7--7--|--7--7--7--7--7--7--7--7--|
--7--7--7--7--7--7--7--7--|--7--7--7--7--7--7--7--7--|
--7--7--7--7--7--7--7--7--|--7--7--7--7--7--7--7--7--|


  E  E  E  E  E  E  E  E     E  E  E  E  E  E  E  E
--------------------------|--------------------------|
--------------------------|--------------------------|
--------------------------|--------------------------|
--2--2--2--4--4--5--5--0--|--L--0--0--4--5--4--0--0--|
--2--2--2--4--4--5--5--0--|--L--0--0--4--5--4--0--0--|
--2--2--2--4--4--5--5--0--|--L--0--0--4--5--4--0--0--|


  E  E  E  E  E  E  E  E     E  E  E  E  E  E  E  E
--------------------------|--------------------------|
--------------------------|--------------------------|
--------------------------|--------------------------|
--7--7--7--7--7--7--7--7--|--7--7--7--7--7--7--7--7--|
--7--7--7--7--7--7--7--7--|--7--7--7--7--7--7--7--7--|
--7--7--7--7--7--7--7--7--|--7--7--7--7--7--7--7--7--|


                                               PM PM
  E  E  E  E  E  E  E  E     E  E  E  E  E  E  E  E
--------------------------|--------------------------|
--------------------------|--------------------------|
--------------------------|--------------------------|
--2--2--2--2-----2-----4--|--5--4--0--5--4--0--0--0--|
--2--2--2--2-----2-----4--|--5--4--0--5--4--0--0--0--|
--2--2--2--2-----2-----4--|--5--4--0--5--4--0--0--0--|


  E  E  E  E  E  E  E  E     E  E  E  E  E  E  E  E
--------------------------|--------------------------|
--------------------------|--------------------------|
--------------------------|--------------------------|
--7--7--7--7--7--7--7--7--|--7--7--7--7--7--7--7--7--|
--7--7--7--7--7--7--7--7--|--7--7--7--7--7--7--7--7--|
--7--7--7--7--7--7--7--7--|--7--7--7--7--7--7--7--7--|


  E  E  E  E  E  E  E  E     E  E  E  E  E  E  E  E
--------------------------|--------------------------|
--------------------------|--------------------------|
--------------------------|--------------------------|
--2--2--2--4--4--5--5--0--|--L--0--0--4--5--4--0--0--|
--2--2--2--4--4--5--5--0--|--L--0--0--4--5--4--0--0--|
--2--2--2--4--4--5--5--0--|--L--0--0--4--5--4--0--0--|


  E  E  E  E  E  E  E  E     E  E  E  E  E  E  E  E
--------------------------|--------------------------|
--------------------------|--------------------------|
--5--5--5--5--5--5--5--5--|--5--5--5--5--5--5--5--5--|
--5--5--5--5--5--5--5--5--|--5--5--5--5--5--5--5--5--|
--3--3--3--3--3--3--3--3--|--3--3--3--3--3--3--3--3--|
--------------------------|--------------------------|


  E  E  E  E  E  E  E  E     E  E  E  E  E  E  E  E
--------------------------|--------------------------|-----|-----|
--------------------------|--------------------------|-----|-----|
--4--4--4--4--4--4--4--4--|--4--4--4--4--4--4--4--4--|-----|-----|
--4--4--4--4--4--4--4--4--|--4--4--4--4--4--4--4--4--|-----|-----|
--2--2--2--2--2--2--2--2--|--2--2--2--2--2--2--2--2--|-----|-----|
--------------------------|--------------------------|-----|-----|


  E  E  E  E  E  E  E  E     E  E  E  E  E  E  E  E
--------------------------|--------------------------|
--8--8--8--8--8--8--8--8--|--7--7--7--7--7--7--7--7--|
--x--x--x--x--x--x--x--x--|--x--x--x--x--x--x--x--x--|
--5--5--5--5--5--5--5--5--|--4--4--4--4--4--4--4--4--|
--------------------------|--------------------------|
--------------------------|--------------------------|


   E   E   E   E   E   E   E   E      E   E   E   E   E   E   E   E
----------------------------------|----------------------------------|
--10--10--10--10--10--10--10--10--|--12--12--12--13--13--13--12--12--|
---x---x---x---x---x---x---x---x--|---x---x---x---x---x---x---x---x--|
---7---7---7---7---7---7---7---7--|---9---9---9--10--10--10---9---9--|
----------------------------------|----------------------------------|
----------------------------------|----------------------------------|


  E  E  E  E  E  E  E  E     E  E  E  E  E  E  E  E
--------------------------|--------------------------|
--8--8--8--8--8--8--8--8--|--7--7--7--7--7--7--7--7--|
--x--x--x--x--x--x--x--x--|--x--x--x--x--x--x--x--x--|
--5--5--5--5--5--5--5--5--|--4--4--4--4--4--4--4--4--|
--------------------------|--------------------------|
--------------------------|--------------------------|


   E   E   E   E   E   E   E   E      E   E   E   E   E   E   E   E
----------------------------------|----------------------------------|
--10--10--10--10--10--10--10--10--|--12--12--12--13--13--13--12--12--|
---x---x---x---x---x---x---x---x--|---x---x---x---x---x---x---x---x--|
---7---7---7---7---7---7---7---7--|---9---9---9--10--10--10---9---9--|
----------------------------------|----------------------------------|
----------------------------------|----------------------------------|


  E  E  E  E  E  E  E  E     E  E  E  E  E  E  E  E
--------------------------|--------------------------|
--8--8--8--8--8--8--8--8--|--7--7--7--7--7--7--7--7--|
--x--x--x--x--x--x--x--x--|--x--x--x--x--x--x--x--x--|
--5--5--5--5--5--5--5--5--|--4--4--4--4--4--4--4--4--|
--------------------------|--------------------------|
--------------------------|--------------------------|


   E   E   E   E   E   E   E   E      E   E   E   E   E   E   E   E
----------------------------------|----------------------------------|
--10--10--10--10--10--10--10--10--|--12--12--12--13--13--13--12--12--|
---x---x---x---x---x---x---x---x--|---x---x---x---x---x---x---x---x--|
---7---7---7---7---7---7---7---7--|---9---9---9--10--10--10---9---9--|
----------------------------------|----------------------------------|
----------------------------------|----------------------------------|


  E  E  E  E  E  E  E  E     E  E  E  E  E  E  E  E
--------------------------|--------------------------|-----|-----|-----|-----|
--8--8--8--8--8--8--8--8--|--7--7--7--7--7--7--7--7--|-----|-----|-----|-----|
--x--x--x--x--x--x--x--x--|--x--x--x--x--x--x--x--x--|-----|-----|-----|-----|
--5--5--5--5--5--5--5--5--|--4--4--4--4--4--4--4--4--|-----|-----|-----|-----|
--------------------------|--------------------------|-----|-----|-----|-----|
--------------------------|--------------------------|-----|-----|-----|-----|


Duration Legend
---------------
W - whole
H - half
Q - quarter
E - 8th
S - 16th
T - 32nd
X - 64th
. - note dotted
|-n-|  - n-tuplets


Tablature Legend
----------------
L - tied note
x - dead note
g - grace note
(n) - ghost note
> - accentuded note
NH - natural harmonic
AH - artificial harmonic
TH - tapped harmonic
SH - semi harmonic
PH - pitch harmonic
h - hammer on
p - pull off
b - bend
br - bendRelease
pb - preBend
pbr - preBendRelease
brb - bendReleaseBend
\n/ - tremolo bar dip
\n - tremolo bar dive
-/n - tremolo bar Release up
/n\ - tremolo bar inverted dip
/n - tremolo bar return
-\n - tremolo bar Release down
S - shift slide
s - legato slide
/ -  slide into from below or out of upwards
\ -  slide into from above or out of downwards
~ - vibrato
W - wide vibrato
tr - trill
TP - tremolo picking
T - tapping
S - slap
P - pop
< - fade in
^ - brush up
v - brush down


That is all! I hope this helped, and be sure to check out my cover if you are
having problems with the tab. Thanks, oh and one last thing... ROCK OUT!!!!
Tap to rate this tab
 
# A B C D E F G H I J K L M N O P Q R S T U V W X Y Z