Song name
# A B C D E F G H I J K L M N O P Q R S T U V W X Y Z

Red - If We Only tab

IF WE ONLY BY RED

THIS IS THE FIRST TAB OUT FOR THIS SONG :)

This is in Drop A tuning (A E A D F# B)

I will not guarantee that the "number of times" you hit/strum the note is correct in 
this tab, i didn't specifically "count" them... but I GUARANTEE YOU that it *IS* the 
correct note, and you should be able to figure out how many times to hit it by ear VERY easily.

ENJOY! :)

Intro 1
4x
|-------------------------------|
|-------------------6-----------|
|-------------------9-----------|
|-------------------------------|
|-------------------------------|
|-1-0-0-0--1-0-0-0--------------|

Intro 2
4x
|-------------------------------------------|
|-------------------------------------------|
|-------------------------------------------|
|-------------------------------------------|
|-------------------------------------------|
|-p3-0-0-0-h5-0-0-0-h6-0-0-0-h8-0-1-1-1-----|

Verse
2x

|---------------------------------------------------------------|
|---------------------------------------------------------------|
|---------------------------------------------------------------|
|---------------------------------------------------------------|
|---------------------------------------------------------------|
|-0-0-0-1/12-0-0-0-1/12-0-0-0-9-p5-0-0-0-1/12-0-0-5-0-0-7-0-7---|

Pre-Chorus
|-------------------------------------------------------|
|-------------------------------------------------------|
|---7-7-7-7-7-7-----------------------------------------|
|---7-7-7-7-7-7---5-5-5-5-5/3-3-3-3-3-3/7-7-7-7-7-7-----|
|---5-5-5-5-5-5---5-5-5-5-5/3-3-3-3-3-3/7-7-7-7-7-7-----|
|-----------------5-5-5-5-5/3-3-3-3-3-3/7-7-7-7-7-7-----|

Chorus
|-----------------------------------------------------------|
|-----------------------------------------------------------|
|-----------------------------------------------------------|
|---8-8-8-8-8--0-0-0-0-0-0--3-3-3-3-3--7-7-7-7-7--8-8-8-8-8-|
|---8-8-8-8-8--0-0-0-0-0-0--3-3-3-3-3--7-7-7-7-7--8-8-8-8-8-|
|---8-8-8-8-8--0-0-0-0-0-0--3-3-3-3-3--7-7-7-7-7--8-8-8-8-8-|

|-------------------------------|
|-------------------------------|
|-------------------------------|
|-5-5-5-5-5--3-3-3-3-3--1-1-1-1-|
|-5-5-5-5-5--3-3-3-3-3--1-1-1-1-|
|-5-5-5-5-5--3-3-3-3-3--1-1-1-1-|


Intro 2
4x
|---------------------------------------------|
|---------------------------------------------|
|---------------------------------------------|
|---------------------------------------------|
|---------------------------------------------|
|-p3-0-0-0-h5-0-0-0-h6-0-0-0-h8-0-1-1-1-------|

Verse
2x

|---------------------------------------------------------------|
|---------------------------------------------------------------|
|---------------------------------------------------------------|
|---------------------------------------------------------------|
|---------------------------------------------------------------|
|-0-0-0-1/12-0-0-0-1/12-0-0-0-9-p5-0-0-0-1/12-0-0-5-0-0-7-0-7---|

Pre-Chorus
|-------------------------------------------------------|
|-------------------------------------------------------|
|---7-7-7-7-7-7-----------------------------------------|
|---7-7-7-7-7-7---5-5-5-5-5/3-3-3-3-3-3/7-7-7-7-7-7-----|
|---5-5-5-5-5-5---5-5-5-5-5/3-3-3-3-3-3/7-7-7-7-7-7-----|
|-----------------5-5-5-5-5/3-3-3-3-3-3/7-7-7-7-7-7-----|

Chorus
|-----------------------------------------------------------|
|-----------------------------------------------------------|
|-----------------------------------------------------------|
|---8-8-8-8-8--0-0-0-0-0-0--3-3-3-3-3--7-7-7-7-7--8-8-8-8-8-|
|---8-8-8-8-8--0-0-0-0-0-0--3-3-3-3-3--7-7-7-7-7--8-8-8-8-8-|
|---8-8-8-8-8--0-0-0-0-0-0--3-3-3-3-3--7-7-7-7-7--8-8-8-8-8-|

|-------------------------------|
|-------------------------------|
|-------------------------------|
|-5-5-5-5-5--3-3-3-3-3--1-1-1-1-|
|-5-5-5-5-5--3-3-3-3-3--1-1-1-1-|
|-5-5-5-5-5--3-3-3-3-3--1-1-1-1-|

Bridge Part 1
2x
|-------------------------------|
|---------------------------6---|
|---------------------------9---|
|-------------------------------|
|-------------------------------|
|--1-0-0-0--1-0-0-0-------------|

Bridge Part 2

|------------------------------|
|------------------------------|
|------------------------------|
|------------------------------|
|------------------------------|
|-p1-0-0-0-h3-0-h4-0-h6-0-h7---|

Bridge Part 3

|-----------------------------------------------------|
|-----------------------------------------------------|
|-----------------------------------------------------|
|---0--3--0--5--0--1--0--8--0--3---0--5--0--1--0--10--|
|---0--3--0--5--0--1--0--8--0--3---0--5--0--1--0--10--|
|---0--3--0--5--0--1--0--8--0--3---0--5--0--1--0--10--|

|--------------------------|
|--------------------------|
|--------------------------|
|--0--3--0--5--0--1--0--8--|
|--0--3--0--5--0--1--0--8--|
|--0--3--0--5--0--1--0--8--|

|------------------------------|
|------------------------------|
|------------------------------|
|--0--3--0--5--0--1--10-10-10--|
|--0--3--0--5--0--1--10-10-10--|
|--0--3--0--5--0--1--10-10-10--|

Chorus
|-----------------------------------------------------------|
|-----------------------------------------------------------|
|-----------------------------------------------------------|
|---8-8-8-8-8--0-0-0-0-0-0--3-3-3-3-3--7-7-7-7-7--8-8-8-8-8-|
|---8-8-8-8-8--0-0-0-0-0-0--3-3-3-3-3--7-7-7-7-7--8-8-8-8-8-|
|---8-8-8-8-8--0-0-0-0-0-0--3-3-3-3-3--7-7-7-7-7--8-8-8-8-8-|

|-------------------------------|
|-------------------------------|
|-------------------------------|
|-5-5-5-5-5--3-3-3-3-3--1-1-1-1-|
|-5-5-5-5-5--3-3-3-3-3--1-1-1-1-|
|-5-5-5-5-5--3-3-3-3-3--1-1-1-1-|

Outro (Same as Intro 2)
4x
|-------------------------------------------|
|-------------------------------------------|
|-------------------------------------------|
|-------------------------------------------|
|-------------------------------------------|
|-p3-0-0-0-h5-0-0-0-h6-0-0-0-h8-0-1-1-1-----|

p = Pull of
h = Hammer on
/ = Slide to
Tap to rate this tab
 
# A B C D E F G H I J K L M N O P Q R S T U V W X Y Z