Song name
# A B C D E F G H I J K L M N O P Q R S T U V W X Y Z

Red - Best Is Yet To Come tab

Album:Until We Have Faces
Tab By Dima Filinyuk
Drop C

Verse
D|------------------------------------------|
A|------------------------------------------|
F|------------------------------------------|
C|---PM--PM--PM--PM--PM--PM--PM--PM--PM--PM-|
G|------------------------------------------|
C|-5-5-5-5-5-5-5-5-5-5-9-9-9-9-9-9-9-9-9-9-9|


D|------------------------------------------|
A|------------------------------------------|
F|------------------------------------------|
C|---PM--PM--PM--PM--PM--PM--PM--PM--PM--PM-|
G|------------------------------------------|
C|-5-5-5-5-5-5-5-5-5-5-9-9-9-9-9-9-9-9-9-9-9|


D|------------------------------------------|
A|------------------------------------------|
F|------------------------------------------|
C|---PM--PM--PM--PM--PM--PM--PM--PM--PM--PM-|
G|------------------------------------------|
C|-7-7-7-7-7-7-7-7-7-7-5-5-5-5-5-5-5-5-5-5-5|

D|------------------------------------------|
A|------------------------------------------|
F|------------------------------------------|
C|---PM--PM--PM--PM--PM--PM--PM--PM--PM--PM-|
G|------------------------------------------|
C|-5-5-5-5-5-5-5-5-5-5-9-9-9-9-9-9-9-9-9-9-9|


D|------------------------------------------|
A|------------------------------------------|
F|------------------------------------------|
C|---PM--PM--PM--PM--PM--PM--PM--PM--PM--PM-|
G|------------------------------------------|
C|-5-5-5-5-5-5-5-5-5-5-9-9-9-9-9-9-9-9-9-9-9|

D|------------------------------------------|
A|------------------------------------------|
F|------------------------------------------|
C|---PM--PM--PM--PM--PM--PM--PM--PM--PM--PM-|
G|------------------------------------------|
C|-7-7-7-7-7-7-7-7-7-7-5-5-5-5-5-5-5-5-5-5-5|
2x

Chorus
D|------------------------------------------|
A|------------------------------------------|
F|-2-2-2-2-2-2-2-2-2-9-9-9-9-9-9-9-9-9-9-9-9|
C|-0-0-0-0-0-0-0-0-0-7-7-7-7-7-7-7-7-7-7-7-7|
G|-0-0-0-0-0-0-0-0-0-7-7-7-7-7-7-7-7-7-7-7-7|
C|-0-0-0-0-0-0-0-0-0-7-7-7-7-7-7-7-7-7-7-7-7|

D|------------------------------------------|
A|------------------------------------------|
F|-7-7-7-7-7-7-7-7-7-7----------------------|
C|-5-5-5-5-5-5-5-5-5-5-9-9-9-9-9-9-9-9-9-9-9|
G|-5-5-5-5-5-5-5-5-5-5-9-9-9-9-9-9-9-9-9-9-9|
C|-5-5-5-5-5-5-5-5-5-5-9-9-9-9-9-9-9-9-9-9-9|


D|------------------------------------------|
A|------------------------------------------|
F|-9-9-9-9-9-9-9-9-9-9-9-9------------------|
C|-7-7-7-7-7-7-7-7-7-7-7-7------------x2----|
G|-7-7-7-7-7-7-7-7-7-7-7-7------------------|
C|-7-7-7-7-7-7-7-7-7-7-7-7------------------|

Verse 2

D|------------------------------------------|
A|------------------------------------------|
F|------------------------------------------|
C|---PM--PM--PM--PM--PM--PM--PM--PM--PM--PM-|
G|------------------------------------------|
C|-5-5-5-5-5-5-5-5-5-5-9-9-9-9-9-9-9-9-9-9-9|


D|------------------------------------------|
A|------------------------------------------|
F|------------------------------------------|
C|---PM--PM--PM--PM--PM--PM--PM--PM--PM--PM-|
G|------------------------------------------|
C|-5-5-5-5-5-5-5-5-5-5-9-9-9-9-9-9-9-9-9-9-9|

D|------------------------------------------|
A|------------------------------------------|
F|------------------------------------------|
C|---PM--PM--PM--PM--PM--PM--PM--PM--PM--PM-|
G|------------------------------------------|
C|-7-7-7-7-7-7-7-7-7-7-5-5-5-5-5-5-5-5-5-5-5|

Bridge

D|------------------------------------------|
A|------------------------------------------|
F|------------------------------------------|
C|-5-5-5-5-5-5-5-5-5-5-7-7-7-7-7-7-7-7-7-7-7|
G|-5-5-5-5-5-5-5-5-5-5-7-7-7-7-7-7-7-7-7-7-7|
C|-5-5-5-5-5-5-5-5-5-5-7-7-7-7-7-7-7-7-7-7-7|

D|------------------------------------------|
A|------------------------------------------|
F|------------------------------------------|
C|-0-0-0-0-0-0-0-0-0-0-7-7-7-7-7-7-7-7-7-7-7|
G|-0-0-0-0-0-0-0-0-0-0-7-7-7-7-7-7-7-7-7-7-7|
C|-0-0-0-0-0-0-0-0-0-0-7-7-7-7-7-7-7-7-7-7-7|

D|------------------------------------------|
A|------------------------------------------|
F|------------------------------------------|
C|-5-5-5-5-5-5-5-5-5-5-5-7-7-7-7-7-7-7-7-7-7|
G|-5-5-5-5-5-5-5-5-5-5-5-7-7-7-7-7-7-7-7-7-7|
C|-5-5-5-5-5-5-5-5-5-5-5-7-7-7-7-7-7-7-7-7-7|

Chorus 2
D|------------------------------------------|
A|------------------------------------------|
F|-2-2-2-2-2-2-2-2-2-9-9-9-9-9-9-9-9-9-9-9-9|
C|-0-0-0-0-0-0-0-0-0-7-7-7-7-7-7-7-7-7-7-7-7|
G|-0-0-0-0-0-0-0-0-0-7-7-7-7-7-7-7-7-7-7-7-7|
C|-0-0-0-0-0-0-0-0-0-7-7-7-7-7-7-7-7-7-7-7-7|

D|------------------------------------------|
A|------------------------------------------|
F|-7-7-7-7-7-7-7-7-7-7----------------------|
C|-5-5-5-5-5-5-5-5-5-5-9-9-9-9-9-9-9-9-9-9-9|
G|-5-5-5-5-5-5-5-5-5-5-9-9-9-9-9-9-9-9-9-9-9|
C|-5-5-5-5-5-5-5-5-5-5-9-9-9-9-9-9-9-9-9-9-9|


D|------------------------------------------|
A|------------------------------------------|
F|-9-9-9-9-9-9-9-9-9-9-9-9------------------|
C|-7-7-7-7-7-7-7-7-7-7-7-7------------x4----|
G|-7-7-7-7-7-7-7-7-7-7-7-7------------------|
C|-7-7-7-7-7-7-7-7-7-7-7-7------------------|

Outro
D|---|
A|---|
F|---|
C|-5-|
G|-5-|
C|-5-|
Tap to rate this tab
 
# A B C D E F G H I J K L M N O P Q R S T U V W X Y Z