Song name
# A B C D E F G H I J K L M N O P Q R S T U V W X Y Z

Red - Until We Have Faces tab

-------------------------------------------------------------------------------
                             Until We Have Faces - Red
-------------------------------------------------------------------------------
Tabbed by: StevenBeaven90
E-mail: stevenkotelnikov@Gmail.com
Tuning: Drop A ( A E A D F# B )
Go to http://www.youtube.com/watch?v=nEnZgtASzeA to view this tab in action.

B|-----------------------------------------------------------------------------|
F#|----------------------------------------------------------------------------|
D|-10-------7--------12--------9-----------------------------------------------|
A|--8--------5--------10--------7-----------(x2)-------------------------------|
E|--8--------5--------10--------7----------------------------------------------|
A|--8--------5--------10--------7----------------------------------------------|

B|------------------------------------------------------------------------------|
F#|-----------------------------------------------------------------------------|
D|------------------------------------------------------------------------------|
A|--0-------0---0-----------------------0-------0---0---------------------------|
E|--0-------0---0-----------------------0-------0---0---------------------------|
A|--0-------0---0-----------------------0-------0---0---------------------------|

B|------------------------------------------------------------------------------|
F#|-----------------------------------------------------------------------------|
D|------------------------------------------------------------------------------|
A|--0---------------------------------------------------------------------------|
E|--0---------------------------------------------------------------------------|
A|--0---------------------------------------------------------------------------|

B|------------------------------------------------------------------------------|
F#|-----------------------------------------------------------------------------|
D|------------------------------------------------------------------------------|
A|--0--3--0--6--0--3--6--0--6--0--3--6--7--0--3--6------------------------------|
E|--0--3--0--6--0--3--6--0--6--0--3--6--7--0--3--6------------------------------|
A|--0--3--0--6--0--3--6--0--6--0--3--6--7--0--3--6------------------------------|

B|------------------------------------------------------------------------------|
F#|-----------------------------------------------------------------------------|
D|------------------------------------------------------------------------------|
A|--0--7--6--0--3--6--0--6--0--3--6--0--1--1------------------------------------|
E|--0--7--6--0--3--6--0--6--0--3--6--0--1--1----------(x2)----------------------|
A|--0--7--6--0--3--6--0--6--0--3--6--0--1--1------------------------------------|

B|------------------------------------------------------------------------------|
F#|-----------------------------------------------------------------------------|
D|------------------------------------------------------------------------------|
A|--3-------------6-------------4-------------7---------------------------------|
E|--3---(x16)-----6---(x16)-----5---(x16)-----7---(x16)-------------------------|
A|--3-------------6-------------4-------------7---------------------------------|




B|------------------------------------------------------------------------------|
F#|-----------------------------------------------------------------------------|
D|------------------------------------------------------------------------------|
A|--3-------------6-------------4-------------3---------------------------------|
E|--3---(x16)-----6---(x16)-----5---(x16)---- 3---(x16)-------------------------|
A|--3-------------6-------------4-------------3---------------------------------|

B|------------------------------------------------------------------------------|
F#|-----------------------------------------------------------------------------|
D|------------------------------------------------------------------------------|
A|--0--------------------------------0------------------------------------------|
E|--0--------------------------------0------------------------------------------|
A|--0--------------------------------0------------------------------------------|

B|------------------------------------------------------------------------------|
F#|-----------------------------------------------------------------------------|
D|------------------------------------------------------------------------------|
A|--0---3---0---6---0---3---6---0---6---0---3---6---7---0---3---6---------------|
E|--0---3---0---6---0---3---6---0---6---0---3---6---7---0---3---6---------------|
A|--0---3---0---6---0---3---6---0---6---0---3---6---7---0---3---6---------------|

B|------------------------------------------------------------------------------|
F#|-----------------------------------------------------------------------------|
D|------------------------------------------------------------------------------|
A|--0---3---0---6---0---3---6---0---6---0---3---6---0---1---1---1---------------|
E|--0---3---0---6---0---3---6---0---6---0---3---6---0---1---1---1---(x2)--------|
A|--0---3---0---6---0---3---6---0---6---0---3---6---0---1---1---1---------------|
Tap to rate this tab
# A B C D E F G H I J K L M N O P Q R S T U V W X Y Z