Song name
# A B C D E F G H I J K L M N O P Q R S T U V W X Y Z

Redcoats - Dreamshaker tab

http://redcoatsmusic.com/

Intro - there's two parts if you want them. Don't forget the whammy bar dips. Play
it nice and open, plenty of gain.

PART 1

E|------------------------|
B|------------------------|
G|----7----5----7---------|
D|----7----5----7---------|
A|----5----3----5---------|
D|-------------------0----|
      D    C    D    D

PART 2

E|------------------------|
B|------------------------|
G|----14----12----14------|
D|----12----10----12------|
A|---------------------0--|
D|---------------------0--|


Verse:

Play the Part 1 intro. Keep on the D building up to the chorus.

Chorus:

LEAD:

E|-------------------------------------------------------------------------------------|
B|-------------------------------------------------------------------------------------|
G|-5h7--7--5--7---5--7--7--5--7b9b7/10--10--10--10--10---10--9--9--9--9--8--8--8--8----|
D|-------------------------------------------------------------------------------------|
A|-------------------------------------------------------------------------------------|
D|-------------------------------------------------------------------------------------|



E|--------------------------------------------------------------------------------------|
B|--------------------------------------------------------------------------------------|
G|-5h7--7--5--7---5--7--7--5--7b9b7-----------------------------------------------------|
D|-----------------------------------8/10--10--10--10--10---10--9--9--9--9--8--8--8--8--|
A|--------------------------------------------------------------------------------------|
D|--------------------------------------------------------------------------------------|

Go straight back to the D for the start of the verse
Tap to rate this tab
# A B C D E F G H I J K L M N O P Q R S T U V W X Y Z