Song name
# A B C D E F G H I J K L M N O P Q R S T U V W X Y Z

Redeeming Souls - Not Gonna tab

Redeeming Souls,Not Gonna.
Tabbed by Royoshi and Special K,royoshi2@hotmail.com.
  
Riff A: (intro)
D--------------------------11
A--------------------------22
E-0-4-5--0-4-5--0-4-5--0-4-33

Riff B: (3 times)
D-0-0-0444-555
A-0-0-0000-000
E-0-0-0444-555

Riff C: (once)
D-0-0-66-55
A-0-0-55-44
E-0-0-44-33

Riff D: (High fly one string)
low E-12-11-12-16-16-11-12-11-12-8-8/9-12-11-12-12-16-12-11-12-8-8

Do Riff C and then...

Riff E: (heavy riff, do four times)
D-0-0-0-4-4-4-5
A-0-0-0-4-4-4-5
E-0-0-0-4-4-4-5

Play Riff D then...

Riff G: (outro)
D------------------5
A--4--5-7----4---5-7
E-4--5---5/4---5---7 
:: Ultimate Guitar Archive :: 
http://www.ultimate-guitar.com 

Tap to rate this tab
# A B C D E F G H I J K L M N O P Q R S T U V W X Y Z