Song name
# A B C D E F G H I J K L M N O P Q R S T U V W X Y Z

Redeeming Souls - Hungover tab

Redeeming Souls,Hungover.
Tabbed by Royoshi,royoshi2@hotmail.com.
  
Tune the first three strings down to
C
G
D

You have to have a whammie bar on your guitar for Riff

Intro
C--0--4--5-4
G--0--4--5-6
D--0--4--5-6

Riff A: (whammie, use an up and down swing of the whammie to make it sound like it is two steps down then come back up to normal)
E-0-0-00-1-0
B-0-0-00-1-0
G-0-0-00-1-0
C-0-0-00-0-0
G-0-0-00-0-0
D-0-0-00-0-0
repeat 6 times

Riff B: (verse 1 and 2)
C-4-5-4-000
G-4-5-4-000
D-4-5-4-676

Riff C: (verse 3, hard part)
C-3-4-3-45-6
G-3-4-3-21-0
D-3-4-3-21-0

Riff D: (outro)i am unsure of last part but i think its right
C----------------------------21
G-23-7-5-23-8-6--2-4-7-11-15-20
D-23-6-4-34-9-7--1-3-5-10-13-18 
:: Ultimate Guitar Archive :: 
http://www.ultimate-guitar.com 

Tap to rate this tab
# A B C D E F G H I J K L M N O P Q R S T U V W X Y Z