Song name
# A B C D E F G H I J K L M N O P Q R S T U V W X Y Z

Redlight King - Bullet In My Hand tab

 Artist: Redlight King
 Song: Bullet In My Hand
 Album: Something for the Pain
 Tuning: Standard (EADGBE)

 Intro:
                     
 |-8h11---11--11-11------6-6h8-|
 |-----------------------------|
 |-----------------------------|
 |-----------------------------|
 |-----------------------------|
 |-----------------------------|

 
 Verse: No Guitar ( Bass & Drums Only)

 Pre-Chorus:

 |-------------------|
 |-------------------|
 |-------------------|
 |-1---------3-------|
 |-1--(8x)---3--(8x)-|
 |-1---------3-------|

 Chorus:

 Guitar 1: 

 |--------------------------------------------------------------------------|
 |--------------------------------------------------------------------------|
 |---------------------------------------------------10--10-----------------|
 |-----8h10--8h10--8h10--8h10\13-13-x-x--8-8--x-x-x--10--10-----------------|
 |-----8h10--8h10--8h10--8h10\13-13-x-x--8-8--x-x-x--8---8------------------|
 |-----8h10--8h10--8h10--8h10\13-13-x-x--8-8--x-x-x-------------------------|

 Guitar 2: Plays Intro 


 
Tap to rate this tab
# A B C D E F G H I J K L M N O P Q R S T U V W X Y Z