Song name
# A B C D E F G H I J K L M N O P Q R S T U V W X Y Z

Redlight King - Drivin To California tab

INTRO

Electric 1
Clean

E|-----------------|
B|-17--------------|
G|-----16--16--19--|
D|-----------------|
A|-----------------|
D|-----------------|

Electric 2
Clean

E|--------|      |----------|
B|--------|      |----------|
G|--------| ---> |----------|
D|-5-5-5--|      |---x---x--|
A|-5-5-5--|      |--x-x---x-|
D|-5-4-2--|      |-x---x----|

VERSE

Electric 1
Clean

E|-------------------|
B|-16/12b------------|
G|-------------------|
D|------------12/17b-|
A|-------------------|
D|-------------------|


Electric 2
Clean

E|--------|      |----------|
B|--------|      |----------|
G|--------| ---> |----------|
D|-5-5-5--|      |---x---x--|
A|-5-5-5--|      |--x-x---x-|
D|-5-4-2--|      |-x---x----|

CHORUS

Electric 2
Clean

E|--------|      |----------|    ---------|
B|--------|      |----------|    --17\12b-|
G|--------| ---> |----------|    ---------|
D|-5-5-5--|      |---x---x--| +  ---------|
A|-5-5-5--|      |--x-x---x-|    ---------|
D|-5-4-2--|      |-x---x----|    ---------|

Electric 1
Clean

E|---------|
B|---------|
G|---------|
D|-5--4--2-|
A|-5--4--2-|
D|-5--4--2-|
   *  *  *
VERSE

Electric 2
Clean

E|--------|      |----------|
B|--------|      |----------|
G|--------| ---> |----------|
D|-5-5-5--|      |---x---x--|
A|-5-5-5--|      |--x-x---x-|
D|-5-4-2--|      |-x---x----|

Electric 1
Clean

E|--------|
B|--------|
G|--------|
D|-12/17b-|
A|--------|
D|--------|

CHORUS

BRIDGE

Electric 1
Mild Distortion

E|-----------------|
B|-----------------|
G|-----------------|
D|-12/17b----19\16-|
A|-----------------|
D|-----------------|


Electric 2
Distortion

E|----------|
B|----------|
G|----------|
D|-10--9--7-|  (strum)
A|-10--9--7-|
D|-10--9--7-|

INTRO

CHORUS

      E|-------|
with  B|-------|
      G|-12/16-|
      D|-------|
      A|-------|
      D|-------|
Tap to rate this tab
# A B C D E F G H I J K L M N O P Q R S T U V W X Y Z