Song name
# A B C D E F G H I J K L M N O P Q R S T U V W X Y Z

Redlight King - City Life tab

INTRO

Electric 1

E|-------------|
B|-------------|
G|-----------9-|
D|-12-11-11--9-|
A|-------9-----|
D|-------------|

VERSE (play intro)

CHORUS

Electric 2+3

E|------------|
B|------------|
G|------------|
D|-9--7--4--2-|
A|-9--7--4--2-|
D|-9--7--4--2-|

Electric 1/Synth
(played in the background)
E|-----|
B|-----|
G|-16--|
D|-x---|
A|-14--|
D|-----|

VERSE

CHORUS

BRIDGE

Electric 1

E|-------------------------|
B|-------------------------|
G|-9-9\7/9-9-----4-4-x-4-4-|
D|-x-x-x-x-x-----x-x-2-x-x-|
A|-7-7\5/7-7-----2-2-0-2-2-|
D|-------------------------|

Electric 2+3

E|--------|
B|--------|
G|--------|
D|-2--5-7-|
A|-2--5-7-|
D|-2--5-7-|
   *  * *

SOLO

Electric 1

E|------------------------------------------------------|
B|-12b-12b-12b-12/14b-14b-14b---------------------------|
G|----------------------------11b-11b-11b-9b-7----------|
D|---------------------------------------------11-9-7-9-|
A|------------------------------------------------------|
D|------------------------------------------------------|

CHORUS

Add near the end...

Electric 3

E|----------------------|
B|----------------------|
G|------------------7---|
D|---------7-99-7-9---9-|
A|-----7----------------|
D|-7-9---9--------------|
Tap to rate this tab
# A B C D E F G H I J K L M N O P Q R S T U V W X Y Z