Song name
# A B C D E F G H I J K L M N O P Q R S T U V W X Y Z

Redlight King - Underground tab

Intro

Electric 1
(palm mute with delay)                         (suggested positions)
E|------444------444-222------555------555-444-   --------------|
B|---------------------------------------------   --5--3--6--5--|
G|-6666-----6666---------7777-----7777---------   --6--4--7--6--|
D|-6666-----6666---------7777-----7777---------   --6--4--7--6--|
A|---------------------------------------------   --4--2--5--4--|
D|---------------------------------------------   --------------|

VERSE
(none unless you want to play the intro)

PRE-CHORUS

Electric 1
(palm mute with delay)                         (suggested positions)
E|------444------444-222------555------555-444-   --------------|
B|---------------------------------------------   --5--3--6--5--|
G|-6666-----6666---------7777-----7777---------   --6--4--7--6--|
D|-6666-----6666---------7777-----7777---------   --6--4--7--6--|
A|---------------------------------------------   --4--2--5--4--|
D|---------------------------------------------   --------------|

Electric 2

E|-------|
B|-------|
G|-------|
D|-7--11-|
A|-7--11-|
D|-7--11-|
   *  *

CHORUS

Electric 1+2

E|-------------------------|
B|-------------------------|
G|-------------------------|
D|-9-11-4-2--xxxx-9-11-4-2-|
A|-9-11-4-2--xxxx-9-11-4-2-|
D|-9-11-4-2--xxxx-9-11-4-2-|

INTRO

VERSE (play intro)

CHORUS

BRIDGE

Electric 2
                             end with...
E|------------------------|     -----|
B|------------------------|     -----|
G|------------------------|     -----|
D|-11111111----9999-7-6-2-|     --10-|
A|-11111111-x2-9999-7-6-2-|     --10-|
D|-11111111----9999-7-6-2-|     --10-|

2nd time play...

Electric 1

E|---------|
B|---------|
G|-6--8-9--|
D|-x--x-x--|
A|-4--6-7--|
D|---------|

CHORUS (variation)

Electric 1

E|--------------------|
B|--------------------|
G|-4-6-11-9-----------|
D|-x-x-x--x-----------|
A|-2-4-9--7-----------|
D|----------pickslide-|

CHORUS

OUTRO CHORUS WITH...

Electric 1

E|-----------|
B|-99-77-----|
G|-------6-9-|
D|-----------|
A|-----------|
D|-----------|

P.S. This on the intro is a little sketchy, i kinda winged it corrections would be helpful :)
Tap to rate this tab
# A B C D E F G H I J K L M N O P Q R S T U V W X Y Z