Song name
# A B C D E F G H I J K L M N O P Q R S T U V W X Y Z

Redlight King - Bullet In My Hand tab

INTRO

Electric 1

E|-8-1111--6h8-|
B|-------------|
G|-------------|
D|-------------|
A|-------------|
D|-------------|

VERSE
(no playing)

PRE-CHORUS

Electric 2

E|------|
B|------|
G|------|
D|-1--3-|
A|-1--3-|
D|-1--3-|
   *  *

CHORUS

Electric 1
(only 3rd and 4th times of the E2 chorus you play this)
E|-8-1111--6h8-|
B|-------------|
G|-------------|
D|-------------|
A|-------------|
D|-------------|

Electric 2

E|--------------------------|
B|--------------------------|
G|-----------------------10-|
D|-8h10----/13-13-13\8-8-10-|
A|-8h10-x4-/13-13-13\8-8-8--|
D|-8h10----/13-13-13\8-8----|

VERSE

CHORUS

POST (only for this chorus)

Electric 1+2

E|-------|
B|-------|
G|-----5-|
D|-1-3-5-|
A|-1-3-3-|
D|-1-3---|

BRIDGE

Electric 1
(pick)
                     (pattern)
E|-----------|       |-------|
B|-----------|       |-------|
G|-----------|       |-------|
D|-10-13-8-3-| ----> |-----x-|
A|-10-13-8-3-|       |---x---|
D|-10-13-8-3-|       |-x-----|

THEN....

Electric 2

E|------------|
B|------------|
G|------------|
D|-3----xxxxx-|
A|-3----xxxxx-|
D|-3----xxxxx-|
   *
THEN...

Electric 1

E|--------------------------------------------|
B|--------------------------------------------|
G|-3/5----8-8-8\-3-10-3/5----8----10-12-15-17-|
D|-x-x-x3-x-x-x--x-x--x-x-x3-x-x3-x--x--x--x--|
A|-1/3----6-6-6\-1-8--1/3----6----8--10-13-15-|
D|--------------------------------------------|

Electric 2

E|--------------------------|
B|--------------------------|
G|-----------------------10-|
D|-8h10----/13-13-13\8-8-10-|
A|-8h10-x4-/13-13-13\8-8-8--|
D|-8h10----/13-13-13\8-8----|

CHORUS
Tap to rate this tab
# A B C D E F G H I J K L M N O P Q R S T U V W X Y Z