Song name
# A B C D E F G H I J K L M N O P Q R S T U V W X Y Z

Redlight King - Little Darlin tab

INTRO

Electric 3
(repeatedly)
E|-10r8h10-|
B|---------|
G|---------|
D|---------|
A|---------|
D|---------|

Electric 2

E|------|
B|------|
G|------|
D|-3--0-|
A|-3--0-|
D|-3--0-|

Electric 1

E|----------------------|
B|-13-------13----10----|
G|----12-10----12----10-|
D|----------------------|
A|----------------------|
D|----------------------|

VERSE

Electric 2

E|------|
B|------|
G|------|
D|------|
A|------|
D|-3--0-|

PRE-CHORUS

Electric 2

E|------|
B|------|
G|------|
D|-3--0-|
A|-3--0-|
D|-3--0-|

CHORUS

Electric 2

E|------|
B|------|
G|------|
D|-3--0-|
A|-3--0-|
D|-3--0-|

Acoustic/Clean= No capo, just play F and D

Then....

Electric 1

E|----------------------|
B|-13-------13----10----|
G|----12-10----12----10-|
D|----------------------|
A|----------------------|
D|----------------------|

VERSE

CHORUS

BRIDGE

Electric 2

E|----------------------------|
B|----------------------------|
G|----------------------------|
D|-3----77-10--12----0----3-0-|
A|-3-X6-77-10--12-x8-0-x8-3-0-|
D|-3----77-10--12----0----3-0-|

CHORUS

OUTRO

Play Chorus with...

Electric 1

E|-----------------------------------------------|
B|-11r10h11r10-8----------11r10h11r10-8----10/13-|
G|---------------10-12-10---------------10-------|
D|-----------------------------------------------|
A|-----------------------------------------------|
D|-----------------------------------------------|
Tap to rate this tab
# A B C D E F G H I J K L M N O P Q R S T U V W X Y Z