Song name
# A B C D E F G H I J K L M N O P Q R S T U V W X Y Z

Redlight King - Born To Rise tab

VERSE (part 1)

Electric 2

E|---------|
B|---------|
G|---------|
D|-7-3-5-0-|
A|-7-3-5-0-|
D|-7-3-5-0-|

VERSE (part 2)

Electric 1
Clean
E|----------|
B|----------|
G|----------|
D|-7-10-9-7-|
A|----------|
D|----------|

Electric 2

E|---------|
B|---------|
G|---------|
D|-7-3-5-0-|
A|-7-3-5-0-|
D|-7-3-5-0-|

PRE-CHORUS

Electric 1

E|-10h121212-x3-10h121212-13-10h121212-x2-|
B|----------------------------------------|
G|----------------------------------------|
D|----------------------------------------|
A|----------------------------------------|
D|----------------------------------------|

Electric 2
(palm mute)
E|-----|
B|-----|
G|-----|
D|-3-5-|
A|-3-5-|
D|-3-5-|

CHORUS

Electric 1

E|-10h121212-x3-10h121212-13-10h121212-x2-|
B|----------------------------------------|
G|----------------------------------------|
D|----------------------------------------|
A|----------------------------------------|
D|----------------------------------------|

Electric 2

E|----------|
B|----------|
G|----------|
D|-7-10-5-0-|
A|-7-10-5-0-|
D|-7-10-5-0-|

VERSE (part 1+2)

PRE-CHORUS

CHORUS

BRIDGE

Electric 1

E|-12-15-17-------12-15-17-----------|
B|-------------------------15-16-17b-|
G|----------14-12--------------------|
D|-----------------------------------|
A|-----------------------------------|
D|-----------------------------------|

Electric 2

E|-------------|
B|-------------|
G|-------------|
D|-2-5-2-5-6-7-|
A|-2-5-2-5-6-7-|
D|-2-5-2-5-6-7-|

PRE-SOLO

Electric 1

E|---|
B|---|
G|-2-|
D|-x-|
A|-0-|
D|---|

Electric 2

E|-----|
B|-----|
G|-----|
D|-5-7-|
A|-5-7-|
D|-5-7-|

SOLO

Electric 1

E|---------------------------------------------------------------------|
B|-17b-x-5-15-13h15-x4-13-------17b-x5-15bb----------------------13----|
G|------------------------16-14----------------------------12-14----14-|
D|---------------------------------------------------12-14-------------|
A|------------------------------------------12-14-15-------------------|
D|---------------------------------------------------------------------|

CHORUS

OUTRO

Electric 1
repeatedly
E|-------------------|
B|-------------------|
G|-------14----------|
D|-14-17----14-14----|
A|----------------12-|
D|-------------------|

Electric 2

E|----------|
B|----------|
G|----------|
D|-7-10-5-0-|
A|-7-10-5-0-|
D|-7-10-5-0-|
Tap to rate this tab
# A B C D E F G H I J K L M N O P Q R S T U V W X Y Z