Song name
# A B C D E F G H I J K L M N O P Q R S T U V W X Y Z

Redondos - Can Fi Frufi Fali Fru tab

Patricio Rey Ņan Fi Frufi Fali Fru (TAB)
Tabbed by maria de los angeles cambra : mariangelescambra@arnet.com.ar

       Riff 1 x3   
1|-----------------------------------------------------| 
2|-----------------------------------------------------|
3|-----------------------------------------------------| 
4|-----------------------------------------------------|
5|------------------2---2---4---2----------------------| 
6|--0---0---3---4--------------------------------------|
       Riff 2 x3                                                  
1|-----------------------------------------------------| 
2|-----------------------------------------------------|
3|-----------------------------------------------------| 
4|------------------2---2---4---2----------------------|
5|--0---0---3---4--------------------------------------| 
6|-----------------------------------------------------|

Durante el Tema Repite los Riff



Tap to rate this tab
# A B C D E F G H I J K L M N O P Q R S T U V W X Y Z