Song name
# A B C D E F G H I J K L M N O P Q R S T U V W X Y Z

Redondos - Gran Lady tab

Les dejo esta TAB de Los Redondos. Cualquier consulta pueden visitar mi sitio
http://sites.google.com/site/clasesdeguitarraenpalermo

INTRO

      Q    E  E  E  E  E  E     E  E  E  Q    E  Q       
E||--------------------------|-------------------------||
B||---8----8-----------------|-------------------------||
G||*--9----9--7--5-----------|------------------------*||
D||*----------------7--5--7--|------------------------*||
A||--------------------------|----------------0--0-----||
E||--------------------------|--0--0--0--3-------------||


ESTROFA


      E  E  E  E  E  E  E  E     E  E  E  E  Q    E  E   
E||---------------------------|-------------------------|
B||------8--8--8--------------|-------------------------|
G||*-----9--9--9--7--5--------|-------------------------|
D||*--------------------7--5--|--7----------------------|
A||---------------------------|-------------------0--0--|
E||---------------------------|-----0--0--0--3----------|


  E  E   E  E   E   E   Q        E  E  E  E  Q    E  E     
------------------------------|--------------------------||
-----8-----------------(5)----|--------------------------||
-----7b--7--5---7-------5-----|-------------------------*||
---------------(7)--7---------|-------------------------*||
------------------------------|-------------------0--0---||
------------------------------|-----0--0--0--3-----------||


ESTROFA (VARIACION)

                       VERSO 1                  VERSO 2 
     W                   H        E  Q    E       H        E  E    E  E     
E||-------------------|-----------------------||--------------------------||
B||-------------------|--------------8----8---||--------------------------||
G||-------------------|--------------9----9--*||--------------7br--7--5--*||
D||-------------------|----------------------*||-------------------------*||
A||-------------------|-----------------------||--------------------------||
E||-------------------|-----------------------||--------------------------||

VERSO 3                 VERSO 4
  H        E  Q    E      E  E  E  E  Q    E  E    
----------------------||-------------------------||
--------------8----8--||-------------------------||
--------------9----9-*||-------------------------||
--------------7----7-*||-------------------------||
----------------------||-------------------0--0--||
----------------------||-----0--0--0--3----------||


CORO


                               Final para retomar                        
      Q    E  E  E  E  Q       E  E  E  E  Q    E  E     
E||-------------------------|--------------------------||
B||-------------------------|--------------------------||
G||*------------------------|-------------------------*||
D||*-------5-----7-----5----|-------------------------*||
A||--------3--0--5-----3----|-------------------0--0---||
E||-------------------------|-----0--0--0--3-----------||


  Final para ir a puente                       
  E  E  E  E  Q    E  E    
-------------------------||
-------------------------||
-------------------------||
-------------------------||
-------------------0-----||
-----0--0--0--3-------0--||


PUENTE


       Q     E  E  E  Q.        E  E  E  Q    E  E  E     
E||--------------------------|--------------------------||
B||--------------------------|--------------------------||
G||*-------------------------|-------------------------*||
D||*---------------5---------|-------------------------*||
A||----------7--------7------|-----------5-------5--7---||
E||---(0)-------0------------|--5--6--7-------7---------||


   Q    E  E  E  E  E  E     E  E  E  Q.     E  E   7x  Q    E  E  E  Q.      
--------------------------|-------------------------||-----------------------|
--------------------------|-------------------------||-----------------------|
*-------5--------5--------|--4--------4------4--4--*||-------5--------5------|
*-------5--------5--------|--4--------4------4--4--*||-------5--------5------|
---0-------0--0-----0--0--|-----0--0----------------||--0-------0--0---------|
--------------------------|-------------------------||-----------------------|


  E  E  E  Q    E  E  E    
-------------------------||
--3--3--3--3-------------||
--2--2--2--2-------------||
-------------------------||
----------------------0--||
----------------0--3-----||


ESTRUCTURA:

INTRO
ESTROFA
CORO
ESTROFA(VARIACION)
ESTROFA
CORO
PUENTE
CORO
ESTROFA(VARIACION)
ESTROFA
CORO
PUENTE
CORO
CORO

Legend

W - whole
H - half
Q - quarter
E - 8th
S - 16th
T - 32nd
. - note dotted
b - Bending

Tap to rate this tab
# A B C D E F G H I J K L M N O P Q R S T U V W X Y Z