Song name
# A B C D E F G H I J K L M N O P Q R S T U V W X Y Z

Redroots - Battling tab

Redroots/Battling.
Tabbed by Hypo John Purtson.
  
This is a kick ass song and it's a brilliant album
Standard tuning
The intro and main riff is like this

------------------------------------------------------
------------------------------------------------------
------------------------------------------------------
------------------------------------------------------
-2--2---5-5b----2----2---5--5b--5-5-5-5-6-6-6-6-------
-0--0---3-3b----0----0---3--3b--3-3-3-3-4-4-4-4-------

the verse 
------------------------------------------------------
------------------------------------------------------
------------------------------------------------------
--4----10---9---7-------------------------------------
--4----10---9---7-------------------------------------
--2-----8---7---5----5-7-5----------------------------

I don't know what Ali does on the breakdown, I think he just picks out some funny chords.

and the part where Richard is saying'Are the drugs over powering me'
------------------------------------------------------
------------------------------------------------------
------------------------------------------------------
------------------------------------------------------
------------------------------------------------------
--0-0-0-1-0-0-00-3--7--0-0-0-1-0-0---3-3-3-3-4-4-4-4--

I have no Idea about the bass I think you need to down tune it though 
:: Ultimate Guitar Archive :: 
http://www.ultimate-guitar.com 



Tap to rate this tab
# A B C D E F G H I J K L M N O P Q R S T U V W X Y Z