Song name
# A B C D E F G H I J K L M N O P Q R S T U V W X Y Z

Reece Mastin - Good Night tab

Strumming
v= down
u= up

Intro (x1) Verse (x2) 

i got my t-shirt and sneakers on....(verse)
-x--x--x---x---x--x--x---x-x-x--x--x-x-x--x-x-x--x--x-x-x--|
-x--x--x---x---x--x--x---x-x-x--x--x-x-x--x-x-x--x--x-x-x--|
-12-12-12--12--12-12-12--7-7-7--7--7-7-7--9-9-9--9--9-9-9--|
-12-12-12--12--12-12-12--7-7-7--7--7-7-7--9-9-9--9--9-9-9--|
-10-10-10--10--10-10-10--5-5-5--5--5-5-5--7-7-7--7--7-7-7--|
-x--x--x---x---x--x--x---x-x-x--x--x-x-x--x-x-x--x--x-x-x--|
 
 v  v  v   u   v  u  v   v v v  u  v u v  v v v  u  v u v  

-x--x--x---x---x--x--x--|                           
-x--x--x---x---x--x--x--|                           
-x--x--x---x---x--x--x--| x3    
-10-10-10--10--10-10-10-|  
-10-10-10--10--10-10-10-|     
-8--8--8---8---8--8--8--|  

 v  v  v   u   v  u  v                                 


Pre-Chorus
Lets go back to Rock n' Roll
-x--x--x---x---x--x--x---x-x-x--x--x-x-x--x-x-x--x--x-x-x--x-------|
-x--x--x---x---x--x--x---x-x-x--x--x-x-x--x-x-x--x--x-x-x--x---h---|
-12-12-12--12--12-12-12--7-7-7--7--7-7-7--9-9-9--9--9-9-9--x---o---|
-12-12-12--12--12-12-12--7-7-7--7--7-7-7--9-9-9--9--9-9-9--10--l---|
-10-10-10--10--10-10-10--5-5-5--5--5-5-5--7-7-7--7--7-7-7--10--d---|
-x--x--x---x---x--x--x---x-x-x--x--x-x-x--x-x-x--x--x-x-x--8-------|
 
 v  v  v   u   v  u  v   v v v  u  v u v  v v v  u  v u v  V-------|
       

Chorus

I'm just looking for a good night...
-x--x--x--x--x--x--x--x--x-x-x-x-x-x-x-x-x-x-x-x-x-x-x-x-|
-x--x--x--x--x--x--x--x--x-x-x-x-x-x-x-x-x-x-x-x-x-x-x-x-|
-12-12-10-12-12-12-12-12-7-7-7-7-7-7-7-7-9-9-9-9-9-9-9-9-|
-12-12-12-12-12-12-12-12-7-7-7-7-7-7-7-7-9-9-9-9-9-9-9-9-|
-10-10-10-10-10-10-10-10-5-5-5-5-5-5-5-5-7-7-7-7-7-7-7-7-|
-x--x--x--x--x--x--x--x--x-x-x-x-x-x-x-x-x-x-x-x-x-x-x-x-|
 
  

-x--x--x---x--x--x-x--x--|
-x--x--x---x--x--x-x--x--| 
-x--x--x---x--x--x-x--x--| x2  
-10-10-10-10-10-10-10-10-| 
-10-10-10-10-10-10-10-10-|                           
-8--8--8--8--8--8--8--8--|     


Break
Now where gonna get up...
-----------------x------------------x------------------x------------------x--|
-----------------x------------------x------------------x------------------x--|
-----------------12-----------------7------------------9------------------x--|
-----------------12-----------------7------------------9------------------10-|
-----------------10-----------------5------------------7------------------10-|
-----------------x------------------x------------------x------------------8--|
  

Outro
I'm just looking for a good night.
-x--x--x---x---x--x--x---x-x-x--x--x-x-x--x-x-x--x--x-x-x--|
-x--x--x---x---x--x--x---x-x-x--x--x-x-x--x-x-x--x--x-x-x--|
-12-12-12--12--12-12-12--7-7-7--7--7-7-7--9-9-9--9--9-9-9--|
-12-12-12--12--12-12-12--7-7-7--7--7-7-7--9-9-9--9--9-9-9--|
-10-10-10--10--10-10-10--5-5-5--5--5-5-5--7-7-7--7--7-7-7--|
-x--x--x---x---x--x--x---x-x-x--x--x-x-x--x-x-x--x--x-x-x--|
 
 v  v  v   u   v  u  v   v v v  u  v u v  v v v  u  v u v  

-x--|                           
-x--|                           
-x--|   
-10-|  
-10-|     
-8--|  

 v  

Layout

Intro(x1)
Verse(x2)
Pre-Chorus(x1)
Chorus(x2)
Verse(x2)(Straight after chorus)
Pre-Chorus(x1)
Chorus(x4)
Break(x3)
Chorus(x4)
Outro(x1)

                                
Follow @Aus_ReeceMastin on Twitter
Tap to rate this tab
# A B C D E F G H I J K L M N O P Q R S T U V W X Y Z