Song name
# A B C D E F G H I J K L M N O P Q R S T U V W X Y Z

Reece Mastin - Good Night tab

(Intro and Verses) 
-----------------------------------------------------------------|
-12-x-12-12-x--12--12-12------10-x-10-10-x--10--10-10------------|
-12-x-12-12-x--12--12-12------11-x-11-11-x--11--11-11------------|
-12-x-12-12-x--12--12-12------12-x-12-12-x--12--12-12------------|
-10-x-10-10-x--10--10-10------12-x-12-12-x--12--12-12------------|
------------------------------10---10-10----10--10-10------------|

------------------------------------------------------------------|
-12-x-12-12-x--12--12-12------8--x-8--8--x--8---8--8--------------|
-13-x-13-13-x--13--13-13------9--x-9--9--x--9---9--9--------------|
-14-x-14-14-x--14--14-14------10-x-10-10-x--10--10-10-------------|
-14-x-14-14-x--14--14-14------10-x-10-10-x--10--10-10-------------|
-12---12-12----12--12-12------8----8--8-----8---8--8--------------|

(CHORUS) 
------------------------------------------------------------------|
------------------------------------------------------------------|
-12-----11-------13------9----------------------------------------|
-12-x12-12--x12--14-x12--10--x12----------------------------------|
-10-----12-------14------10---------------------------------------|
--------10-------12------8----------------------------------------|

I went to see him live and they played an acoustic version
the chords for this were G D Em and C
Any problems or changes or yuuh just wanna say im amazing
TylerTerror666@gmail.com
Tap to rate this tab
# A B C D E F G H I J K L M N O P Q R S T U V W X Y Z