Song name
# A B C D E F G H I J K L M N O P Q R S T U V W X Y Z

Reece Mastin - Shut Up And Kiss Me tab

Hey guys. This is my very first tab but ive been playing guitar for roughly 8 years. I 
really like this song and I hope you enjoy playing it.

First you'll need to put your guitar into drop D tuning. There are 2 guitars.

Shut Up and Kiss Me - Reece Mastin
2012

LEGEND:
~ - vibrate
h - hammer on
p - pull off
b - bend

Intro (Guitar 1):

d|---------------------------------------------------|
A|---------------------------------------------------|
D|---------------------------------------------------|
G|---------------------------------------------------|
B|-9----9-----9----9-----9----9----------------------|
e|---11---9-8---11---9-8---11---9-8--4-4-6-4-6-8-6-4-|
  Repeat this 2 times

(Guitar 2):

d|-6-6-6-6-6-6-6-6-----------------3-3-3-3-3-3-3-3-1-1-1-1-1-1-1-1-|
A|-6-6-6-6-6-6-6-6-4-4-4-4-4-4-4-4-3-3-3-3-3-3-3-3-1-1-1-1-1-1-1-1-|
D|-6-6-6-6-6-6-6-6-6-6-6-6-6-6-6-6-3-3-3-3-3-3-3-3-1-1-1-1-1-1-1-1-|
G|-----------------6-6-6-6-6-6-6-6---------------------------------|
B|-----------------------------------------------------------------|
e|-----------------------------------------------------------------|
  Play this tab through out the 2nd time of the intro.
  Guitar 2 plays this through out the song until the bridge.

Verse's:

  Guitar 2's Tab

Chorus's:

  Guitar 2's Tab

Bridge:

d|-6~---------3~-1-1-1-1-6~---------3~-1-1-1-1-1-1-1-1-|
A|-6~-4-4-4-4-3~-1-1-1-1-6~-4-4-4-4-3~-1-1-1-1-1-1-1-1-|
D|-6~-6-6-6-6-3~-1-1-1-1-6~-6-6-6-6-3~-1-1-1-1-1-1-1-1-|
G|----6-6-6-6---------------6-6-6-6--------------------|
B|-----------------------------------------------------|
e|-----------------------------------------------------|

Guitar 2 keeps playing the top tab in solo.

Solo:

d|----------------------------------------|
A|----------------------------------------|
D|----------------------------------------|
G|----------------------------------------|
B|-4-4-4-4-4-4-4-4--4-4-4-4--4-4-4-4------|
e|-4-4-4-4-4-4-4-4--3-4-4-4--3-4-4-4--8-6-|
  Repeat this twice

Pre-Chorus:

  This part isnt really guitar. Its piano and it contains alot of keys that are on frets 
that will be really hard to reach. If you want you can play guitar 1's tab from the intro.

Chorus:

Guitar 2's tab.

And that is the end of the song.

I hope you enjoyed my very first tab.
Tap to rate this tab
# A B C D E F G H I J K L M N O P Q R S T U V W X Y Z