Song name
# A B C D E F G H I J K L M N O P Q R S T U V W X Y Z

Reece Mastin - Shut Up And Kiss Me tab

Tabbed by: Vanessa Quek

Intro

Guitar 1
e|--11-9-8---11-9-8---11-9-8-------------8--------|
B|-9--9-9---9--9-9---9--9-9---9-9-11-9-11-11-9----|
G|------------------------------------------------|  [x2]
D|------------------------------------------------|
A|------------------------------------------------|
E|------------------------------------------------|

Guitar 2
Palm muted
e|------------------------------------------------|
B|------------------------------------------------|
G|----------66666666----------88888888------------|  [x2]
D|-66666666-66666666-33333333-88888888------------|
A|-66666666-44444444-33333333-66666666------------|
E|-44444444----------11111111---------------------|

Verse

Guitar 2
Palm muted
e|------------------------------------------------|
B|------------------------------------------------|
G|----------66666666----------88888888------------|  [x4]
D|-66666666-66666666-33333333-88888888------------|
A|-66666666-44444444-33333333-66666666------------|
E|-44444444----------11111111---------------------|

Chorus

Guitar 2

Strumming pattern: d d u u d u
e|------------------------------------------------|
B|------------------------------------------------|
G|--------666666--------888888--------------------|  [x2]
D|-666666-666666-333333-888888--------------------|
A|-666666-444444-333333-666666--------------------|
E|-444444--------111111---------------------------|

e|------------------------------------------------|
B|------------------------------------------------|
G|---------66-66-6---------888888-----------------|  [x2]
D|-66-66-6-66-66-6-33-33-3-888888-----------------|
A|-66-66-6-44-44-4-33-33-3-666666-----------------|
E|-44-44-4---------11-11-1------------------------|

Verse

Chorus

Bridge

Guitar 2
Listen to the song and figure out the strumming pattern for yourself from there
e|------------------------------------------------|
B|------------------------------------------------|
G|-----666-----888------666-8888888888888888------|
D|-666-666-333-888--666-666-8888888888888888------|
A|-666-444-333-666--666-444-6666666666666666------|
E|-444-----111------444---------------------------|

Solo

Guitar 1

Sorry, I haven't figured out how to play it yet

Guitar 2
e|------------------------------------------------|
B|------------------------------------------------|
G|--------666666--------888888--------------------|  [x2]
D|-666666-666666-333333-888888--------------------|
A|-666666-444444-333333-666666--------------------|
E|-444444--------111111---------------------------|

Chorus

Palm muted
e|------------------------------------------------|
B|------------------------------------------------|
G|----------66666666----------88888888------------|  [x2]
D|-66666666-66666666-33333333-88888888------------|
A|-66666666-44444444-33333333-66666666------------|
E|-44444444----------11111111---------------------|

Strumming pattern: d d u u d u
e|------------------------------------------------|
B|------------------------------------------------|
G|--------666666--------888888--------------------|  [x4]
D|-666666-666666-333333-888888--------------------|
A|-666666-444444-333333-666666--------------------|
E|-444444--------111111---------------------------|

e|------------------------------------------------|
B|------------------------------------------------|
G|---------66-66-6---------888888-----------------|  [x2]
D|-66-66-6-66-66-6-33-33-3-888888-----------------|
A|-66-66-6-44-44-4-33-33-3-666666-----------------|
E|-44-44-4---------11-11-1------------------------|
Tap to rate this tab
# A B C D E F G H I J K L M N O P Q R S T U V W X Y Z