Song name
# A B C D E F G H I J K L M N O P Q R S T U V W X Y Z

Reece Mastin - Good Night tab

Song: Good Night
Artist: Reece Mastin
Genre: Pop

INTRODUCTION:
This is my first tab!
Not asking for pity, if you think its sh#t, everyone here does that, haha.
But please feel free to comment on how I can make any future tabs or this tab better.

NOTES:
I realised: NO ONE on this site or any other at that, had a good tab to this song and
they were all sh#tty chords and powerchords, which is what this song is, but these are
more precise and sound, what I think 99.9% correct to the actual song. I've worked these 
chords out from watching the videos and listening to the tracks.
This is a POP hit, so literally, it only has 4 chords.
If you're just playing an acoustic version, just learn the first 4 chords shown at the
start and that's you done, but make sure you learn how to place it with the words, which
is also shown. ;)
Hope y'all enjoy playing!

TAB:
o Tuning:
Guitar 1: E Standard (If you like, you can play in Drop D, if you're lazy and want to
blend in the top E string). - Recommended for beginners.
Guitar 2: Drop D (Or E standard, with normal power-chords).
I find it sounds better when played with bar chords(Drop D).
If you're a beginner, stick with drop D, so its not too confusing.
Drop D tuning is normal tuning, except the low E string, tuned down to a D.
o Difficulty: Novice.
o What stuff means:
D = Downwards strum.
U = Upwards strum.
x = Silence that mofo.

GUITAR 1 (MAIN GUITAR - CHORDS).

This guitar is the harder part, but is still quite easy, even for beginners.
INTRO (PLAYED TWICE, BEFORE SINGING STARTS):
  D  U  D  U  D  U D D D  D U  D  U  D  U  D  U D D D  D U
E-x--x--x--x--x--x-x-x-x--x-x--x--x--x--x--x--x-x-x-x--x-x-|
A-5--5--5--5--5--5-5-5-5--x-x--5--5--5--5--5--5-5-5-5--x-x-|
D-5--7--7--7--7--7-7-7-7--x-x--7--7--7--7--7--7-7-7-7--x-x-|
G-7--7--7--7--7--7-7-7-7--x-x--7--7--7--7--7--7-7-7-7--x-x-|
B-8--8--8--8--8--8-8-8-8--x-x--7--7--7--7--7--7-7-7-7--x-x-|
e-x--x--x--x--x--x-x-x-x--x-x--x--x--x--x--x--x-x-x-x--x-x-|
  G chord ------------------I  D chord---------------------|I

  D  U  D  U  D  U D D D  D U  D  U  D  U  D  U D D D  D U
--x--x--x--x--x--x-x-x-x--x-x--x--x--x--x--x--x-x-x-x--x-x-|
--7--7--7--7--7--7-7-7-7--x-x--3--3--3--3--3--3-3-3-3--x-x-|
--9--9--9--9--9--9-9-9-9--x-x--5--5--5--5--5--5-5-5-5--x-x-|
--9--9--9--9--9--9-9-9-9--x-x--5--5--5--5--5--5-5-5-5--x-x-|
--8--8--8--8--8--8-8-8-8--x-x--5--5--5--5--5--5-5-5-5--x-x-|
--x--x--x--x--x--x-x-x-x--x-x--x--x--x--x--x--x-x-x-x--x-x-|
--Em Chord------------------I--C Chord---------------------|I

So now you know the strumming pattern and chords, its the same all through the verse,
now just play it to the words...

G CHORD
I got my T-shirt and sneakers on,
D CHORD
No one to mess around with fate,
Em CHORD
It feels so wrong...
C CHORD
G CHORD
I'm gonna live it up tonight,
D CHORD
Forgetting those who dim,
Em CHORD
My light...
C CHORD
G CHORD
Let's go back to rock N' roll,
D CHORD
We're people just let go,
Em CHORD
And let the music flow - oh - whoa -
C CHORD
Oh!

o IF JUST PLAYING WITH THE ONE GUITAR, skip down to the chorus.

GUITAR 2 (DISTORTED GUITAR - BAR CHORDS).
I'm not good with effect pedals, but its some kind of distortion, haha.
As soon as Reece starts singing: "I'm gonna' live it up tonight" that's when this guitar
comes in. This guitar part is easier to play still and its just all bar chords:

I'm gonna live it up tonight...
  D  D  D  D D D
D-5--5--5--5-5-5--|
A-5--5--5--5-5-5--|
D-5--5--5--5-5-5--|
G-----------------|
B-----------------|
e-----------------|
Forgetting those who...
   D   D   D   D  D  D
D-12--12--12--12-12-12-|
A-12--12--12--12-12-12-|
D-12--12--12--12-12-12-|
G----------------------|
B----------------------|
e----------------------|
Dim...
  D  D  D  D D D
D-2--2--2--2-2-2-|
A-2--2--2--2-2-2-|
D-2--2--2--2-2-2-|
G----------------|
B----------------|
e----------------|
My light...
   D   D   D   D  D  D
D-10--10--10--10-10-10-|
A-10--10--10--10-10-10-|
D-10--10--10--10-10-10-|
G----------------------|
B----------------------|
e----------------------|

Let's go back to rock and roll...
  D  D  D  D D D
D-5--5--5--5-5-5--|
A-5--5--5--5-5-5--|
D-5--5--5--5-5-5--|
G-----------------|
B-----------------|
e-----------------|
Where people just let go...
   D   D   D   D  D  D
D-12--12--12--12-12-12-|
A-12--12--12--12-12-12-|
D-12--12--12--12-12-12-|
G----------------------|
B----------------------|
e----------------------|
And let the music flow - oh - whoa
  D  D  D  D D D
D-2--2--2--2-2-2-|
A-2--2--2--2-2-2-|
D-2--2--2--2-2-2-|
G----------------|
B----------------|
e----------------|
...Oh!
   D
D-10------------|
A-10------------|
D-10------------|
G---------------|
B---------------|
e---------------|

CHORUS:

Guitar 1: (ENTIRE CHORUS PALM MUTED).

...Good night whoa - oh
  D  D  D  DUDUDU           DUDUDU
E-x--x--x--xxxxxx--x--x--x--xxxxxx-|
A-5--5--5--xxxxxx--5--5--5--xxxxxx-|
D-5--5--5--xxxxxx--7--7--7--xxxxxx-|
G-7--7--7--xxxxxx--7--7--7--xxxxxx-|
B-8--8--8--xxxxxx--7--7--7--xxxxxx-|
e-x--x--x--xxxxxx--x--x--x--xxxxxx-|

... Right time no - oh
  D  D  D  DUDUDU
--x--x--x--xxxxxx--x--x--x--xxxxxx-|
--7--7--7--xxxxxx--3--3--3--xxxxxx-|
--9--9--9--xxxxxx--5--5--5--xxxxxx-|
--9--9--9--xxxxxx--5--5--5--xxxxxx-|
--8--8--8--xxxxxx--5--5--5--xxxxxx-|
--x--x--x--xxxxxx--x--x--x--xxxxxx-|

...Say to you right now
  D  D  D  DUDUDU           DUDUDU
E-x--x--x--xxxxxx--x--x--x--xxxxxx-|
A-5--5--5--xxxxxx--5--5--5--xxxxxx-|
D-5--5--5--xxxxxx--7--7--7--xxxxxx-|
G-7--7--7--xxxxxx--7--7--7--xxxxxx-|
B-8--8--8--xxxxxx--7--7--7--xxxxxx-|
e-x--x--x--xxxxxx--x--x--x--xxxxxx-|

... Let the music speak out loud
  D  D  D  DUDUDU
--x--x--x--xxxxxx--x--x--x--xxxxxx-|
--7--7--7--xxxxxx--3--3--3--xxxxxx-|
--9--9--9--xxxxxx--5--5--5--xxxxxx-|
--9--9--9--xxxxxx--5--5--5--xxxxxx-|
--8--8--8--xxxxxx--5--5--5--xxxxxx-|
--x--x--x--xxxxxx--x--x--x--xxxxxx-|

Guitar 2 (W/Distortion and all chords played open):

...Good night woah - oh, I'm not looking for the...
D-5-5-5-5-5-5-5-5--12-12-12-12-12-12-12-12-|
A-5-5-5-5-5-5-5-5--12-12-12-12-12-12-12-12-|
D-5-5-5-5-5-5-5-5--12-12-12-12-12-12-12-12-|
G------------------------------------------|
B------------------------------------------|
e------------------------------------------|
Right time no - oh, All I really wanna'
-2-2-2-2-2-2-2-2--10-10-10-10-10-10-10-10-|
-2-2-2-2-2-2-2-2--10-10-10-10-10-10-10-10-|
-2-2-2-2-2-2-2-2--10-10-10-10-10-10-10-10-|
------------------------------------------|
------------------------------------------|
------------------------------------------|

...Say to you right now, Is shut your mouth and...
D-5-5-5-5-5-5-5-5--12-12-12-12-12-12-12-12-|
A-5-5-5-5-5-5-5-5--12-12-12-12-12-12-12-12-|
D-5-5-5-5-5-5-5-5--12-12-12-12-12-12-12-12-|
G------------------------------------------|
B------------------------------------------|
e------------------------------------------|
...Let the music speak out loud, I'm just looking for a...
-2-2-2-2-2-2-2-2--10-10-10-10-10-10-10-10-|
-2-2-2-2-2-2-2-2--10-10-10-10-10-10-10-10-|
-2-2-2-2-2-2-2-2--10-10-10-10-10-10-10-10-|
------------------------------------------|
------------------------------------------|
------------------------------------------|

BRIDGE/INTRO:

Guitar 1 (So again, play this part twice, before going into the next verse):

...Good night
  D  U  D  U  D  U D D D  D U  D  U  D  U  D  U D D D  D U
E-x--x--x--x--x--x-x-x-x--x-x--x--x--x--x--x--x-x-x-x--x-x-|
A-5--5--5--5--5--5-5-5-5--x-x--5--5--5--5--5--5-5-5-5--x-x-|
D-5--7--7--7--7--7-7-7-7--x-x--7--7--7--7--7--7-7-7-7--x-x-|
G-7--7--7--7--7--7-7-7-7--x-x--7--7--7--7--7--7-7-7-7--x-x-|
B-8--8--8--8--8--8-8-8-8--x-x--7--7--7--7--7--7-7-7-7--x-x-|
e-x--x--x--x--x--x-x-x-x--x-x--x--x--x--x--x--x-x-x-x--x-x-|
  G chord ------------------I  D chord---------------------|I

  D  U  D  U  D  U D D D  D U  D  U  D  U  D  U D D D  D U
--x--x--x--x--x--x-x-x-x--x-x--x--x--x--x--x--x-x-x-x--x-x-|
--7--7--7--7--7--7-7-7-7--x-x--3--3--3--3--3--3-3-3-3--x-x-|
--9--9--9--9--9--9-9-9-9--x-x--5--5--5--5--5--5-5-5-5--x-x-|
--9--9--9--9--9--9-9-9-9--x-x--5--5--5--5--5--5-5-5-5--x-x-|
--8--8--8--8--8--8-8-8-8--x-x--5--5--5--5--5--5-5-5-5--x-x-|
--x--x--x--x--x--x-x-x-x--x-x--x--x--x--x--x--x-x-x-x--x-x-|
--Em Chord------------------I--C Chord---------------------|I

Play that to the words now:

G CHORD
I think ya' get the picture now,
D CHORD
Yeah I think you know,
Em CHORD
What I'm all about,
C CHORD
G CHORD
I've got no time for fools,
D CHORD
Who think they're playing cool,
Em CHORD
My ears have turned you out,
C CHORD
G CHORD
Let's go back to rock N' roll,
D CHORD
We're people just let go,
Em CHORD
And let the music flow - oh - whoa -
C CHORD
Oh!

GUITAR 2:

I've got no time for fools...
  D  D  D  D D D
D-5--5--5--5-5-5--|
A-5--5--5--5-5-5--|
D-5--5--5--5-5-5--|
G-----------------|
B-----------------|
e-----------------|
Who think they're playing cool...
   D   D   D   D  D  D
D-12--12--12--12-12-12-|
A-12--12--12--12-12-12-|
D-12--12--12--12-12-12-|
G----------------------|
B----------------------|
e----------------------|
My ears have turned you...
  D  D  D  D D D
D-2--2--2--2-2-2-|
A-2--2--2--2-2-2-|
D-2--2--2--2-2-2-|
G----------------|
B----------------|
e----------------|
...Out...
  D   D   D   D  D  D
D-10--10--10--10-10-10-|
A-10--10--10--10-10-10-|
D-10--10--10--10-10-10-|
G----------------------|
B----------------------|
e----------------------|

Let's go back to rock and roll...
  D  D  D  D D D
D-5--5--5--5-5-5--|
A-5--5--5--5-5-5--|
D-5--5--5--5-5-5--|
G-----------------|
B-----------------|
e-----------------|
Where people just let go...
   D   D   D   D  D  D
D-12--12--12--12-12-12-|
A-12--12--12--12-12-12-|
D-12--12--12--12-12-12-|
G----------------------|
B----------------------|
e----------------------|
And let the music flow - oh - whoa
  D  D  D  D D D
D-2--2--2--2-2-2-|
A-2--2--2--2-2-2-|
D-2--2--2--2-2-2-|
G----------------|
B----------------|
e----------------|
...Oh!
   D
D-10------------|
A-10------------|
D-10------------|
G---------------|
B---------------|
e---------------|

**CHORUS (Repeat that again twice).**

VERSE 3 (The solo the 2nd guitar does, during this part, is too hard to figure out. I
haven't got too many effects with my guitar, so it's not practical. If I can later, I'll
have a crack and put it up, most likely won't be for a while though. JUST USE THE SAME 
STRUMMING AND CHORDS FROM THE FIRST 2 PARTS:

Guitar 1:
G CHORD
Now we're gonna' get up,
D CHORD
Now we're gonna' get up
Em CHORD
Just let yourself lose control,
C CHORD
Let the music take hold,
G CHORD
Everybody get up,
D CHORD
Everybody get up,
Em CHORD
It's time that you know,
C CHORD
How to let it go,
G CHORD
Let's go back to rock N'Roll
D
Where the music just flows
Em
And everybody knows...

**CHORUS (Repeat that again twice).**

OUTRO(Guitar 1):
The same strumming played all verses, to these words:

G CHORD
D CHORD
I'm just looking...
Em CHORD
...For a goodnight.
C CHORD

Hope this helped!
THIS IS MY TAB! :D
o Feedback would be awesome!
o Constructive/Critty sh#t
o Comment on bad grammar, idk?
o Haha, thanks and bye! :3
Tap to rate this tab
 
# A B C D E F G H I J K L M N O P Q R S T U V W X Y Z