Guitaretab - guitar tabs
Song name
# A B C D E F G H I J K L M N O P Q R S T U V W X Y Z

Reed Lou - Perfect Day tab

-------------------------------------------------------------------------------
			     PERFECT DAY - Lou Reed
-------------------------------------------------------------------------------
Tabbed by: Tyler J
Email: full_metal_orange AT hotmail DOT com

Tuning: Capo 1

This is a fantastic song made famous by the overdose scene from the movie 
It is a fantastic song so.... enjoy!

Intro: (2 Times)

          E       Am

e----------------------------------|
B---------0-----0--1----------1----|
G---------1--2-----2--2---------2--|
D---------2--------2-----2---------|
A---------2------------------------|
E--0-------------------------------|

Verse: (2 Times)

   Am   D          G    C   C   F          Dm         E   E   E

e-------2-----2----3----2---0---1----------1----------0---4---7----0----|
B--1----3-------3--3----1---1---1---1------3---1------0---5---9-------0-|
G--2----2---2------0----0---0---2-----2----2-----2----1---4---9---1-----|
D--2----0----------0----2---2---3-------3--0-------3--2---6---9---------|
A--0--------------------3---3---3---------------------2-----------------|
E-------------------------------1---------------------0-----------------|

Just a perfect day
Drink sangria in the park
And then later, when it gets dark, we'll go home
Just a perfect day
Feed animals in the zoo
Then later a movie too, and then home

Chorus:

   A         D         C#m       D              A         E

e---------0--2---2--2--4---4--4--2--2------------------0--0---0--0-----|
B--2---2--2--3---3--3--5---5--5--3--3--3--------2---2--2--0---0--0-----|
G--2---2--2--2---2--2--6---6-6--2--2--2--2--2--2---2--2--1---1--1-----|
D--2---2-----0---0-----6---6-6--0--0--0--x--x--2---2-----2---2--2-----|
A--0---0---------------4---4--------------4--2--0---0-----2---2--------|
E---------------------------------------------------------0---0--------|

   F#m    E     D         F#m    E     D
[ Tab from: http://www.guitaretab.com/r/reed-lou/15743.html ]
e--2---2--0--0--2--2--2---2---2--0--0--2--2--2----|
B--2---2--0--0--3--3--3---2---2--0--0--3--3--3----|
G--2---2--1--1--2--2--2---2---2--1--1--2--2--2----|
D--4---4--2--2--0--0--0---4---4--2--2--0--0--0----|
A--4------2---------------4------2----------------|
E--2------0---------------2------0----------------|

Oh it's such a perfect day
I'm glad I spent it with you
Oh such a perfect day
You just keep me hanging on
You just keep me hanging on

Verse x 2

Just a perfect day
Problems all left alone
Weekenders on our own
It's such fun
Just a perfect day
You make me forget myself
I thought I was someone else
Someone good

Chorus

Solo: (3 Times)

e--2-----------------------------------------|
B--2--2---2----2--2---2----2--0------0----0--|
G--2----4---4--2----4---4--2------2-----2----|
D--4-----------2-----------0-----------------|
A--------------------------------------------|
E--------------------------------------------|

Interlude: (4 Times)

   C#m       G         D              A  ___________   _____________
                                        | 1,2,3       |  4
e--4---4--4--3---3--3--2--2-------------------------| e-------------|
B--5---5--5--0---0--0--3--3--3--------2-----2--0----| B-----2-------|
G--6---6--6--0---0--0--2--2--2--2--2--2-----------2-| G--------2----|
D--6---6--6--0---0--0--0--0--0--x--x--2--2----------| D-2--------2-|
A--4---4-----2---2--------------4--2--0-------------| A-------------|
E--4---------3---3----------------------------------| E-------------|

You're going to reap just what you sow
You're going to reap just what you sow
You're going to reap just what you sow
You're going to reap just what you sow

Outro:

e---------------------------------------------------------------------|
B--5--5-------5-------3p0-------0-3p0---3---------------2-----2--0----|
G--6----6---6-6--6----0---0---0---0-----2--2---2--2-----2-----------2-|
D---------6---------6-------0-----------0----0-0--x--x--2--2----------|
A--4----------4-----------------------------------4--2--0-------------|
E---------------------3-----------3-----------------------------------|

e--0-----------0-----------------------3-----------------------|
B--2-2-------2-2-2-------2-3p0-------0-0--3------------2-------|
G------1---1-------1---1---0---0---0---0--2--2---2-2---2-------|
D--------2-----------2-----------0-----0--0----0-0-x-x-2-------|
A--4-----------4-----------------------2-----------4-2-0-------|
E--------------------------3-----------3-----------------------|
Related for Perfect Day tab