Guitaretab - guitar tabs
Song name
# A B C D E F G H I J K L M N O P Q R S T U V W X Y Z
Home / R / Reef / Repulsive tab

Reef - Repulsive tab

----------------------------------------------------------------------------
			     REPULSIVE - Reef
----------------------------------------------------------------------------
Tabbed by: 100%guitarmad
Email: edmedmoped@yahoo.co.uk

Tuning: Starndard (Standard)


Main Riff
e]------------------------------------|
B]-----------7--5~---------------7^---|
G]------5----7--5~---------5-----7^---|
D]--5/7---7--7--5~----5/7-----7--7^---|
A]------------------------------------|
E]------------------------------------|

Pre-Chorus
e]---------------------------------------------------|
B]--5-7-5---5-x-x-x-5-7~----5-7-5--8^-^-^------------|
G]--5-7-5---5-x-x-x-5-7~----5-7-5--7^-^-^------------|
D]--5-7-5---5-x-x-x-5-7~----5-7-5--------------------|
A]---------------------------------------------------|
E]---------------------------------------------------|

Chorus
e]---------------------------------------------------|
B]---------------------------------------------------|
G]---7-7-7-7-7---5-x-5-5-/-7-7-7-7--5-5-x-7-x-5-/-7--|
D]---7-7-7-7-7---5-x-5-5-/-7-7-7-7--5-5-x-7-x-5-/-7--|
A]---5-5-5-5-5---3-x-3-3-/-5-5-5-5--3-3-x-5-x-3-/-5--|
E]---------------------------------------------------|

[ Tab from: http://www.guitaretab.com/r/reef/100325.html ]
Solo/Bridge (Hard!)
e]------------------------------------------------------------------------|
B]------------------------------------------------------------------------|
G]------------------------------------------------------------------------|
D]---7-7~-~---------/-10--------5h7--5h7--5h7---5h7--5h7--5h7--5h7--etc...|
A]---7-7~-~---------/-10--------------------------------------------------|
E]---5-5~-~---------/-8---------------------------------------------------|

e]----------------------------------|
B]----------------------------------|
G]----------------------------------|
D]-5h7-5h7-5h7-5h7-5h7-5h7-5h7-5h7--|
A]----------------------------------|
E]----------------------------------|

'Comeon comeon comeon etc'
e]-----------------------------------------------|
B]-----------5~----------------------------------|
G]-----------5~-------------5h7^p5---------------|
D]--5h7-7-7--5~--h7-5h7-7-7--------h7p5-----5^~7-|
A]--------------------------------------7p5------|
E]-----------------------------------------------|


e]------------------------------------|
B]------------------------------------|
G]-----------0h5h7-7h6h5--------------|
D]------0h5h7-----------7h6h5---------|
A]-0h5h7----------------------7h6h5---|
E]------------------------------------| x2

Bridge End
e]-------------------------------|
B]--2~---5-/-7-7-/-5-5~----------|
G]--2~---5-/-7-7-/-5-5~----------|
D]--2~---3-/-5-5-/-3-3~----------|
A]-------------------------------|
E]-------------------------------| x2


Wooh! Rock an' Roowl!
Thanks for Looking!
Related for Repulsive tab
×
Repulsive