Song name
# A B C D E F G H I J K L M N O P Q R S T U V W X Y Z

Reef - Waster Live tab

----------------------------------------------------------------------------
			     WASTER (Live) - Reef
----------------------------------------------------------------------------
Tabbed by: Eddie Adams (100%guitarmad)
Email: edmedmoped@yahoo.co.uk

Tuning: Standard

This track was performed by Reef only at live events and was later released as a single. 
can watch one of their performances of Waster on YouTube.
(http://www.youtube.com/watch?v=n2uGz_FeOa0).

Enjoy! (My tab that is, not the video)


Intro
e|---------------------------------|
B|---------------------------------|
G|-5-------------------------------|
D|----7--5--7-7-5---5h7p5----------|
A|----------------7-------7-5-3--0-|
E|---------------------------------|

e|---------------------------------| x 4
B|---------------------------------|
G|-5-------------------------------|
D|----7--5--7-7-5---5h7p5----------|
A|----------------7-------7-5-3-x-x|
E|---------------------------------|


Verse
e|------------------------------------------------------------------------|
B|------------------------------------------------------------------------|
G|------xxxxxxxxxxxx--5/7--xxxxxxxxxxxx-------xxxxxxxxxxxx--5/7-----------|
D|-5/7--xxxxxxxxxxxx--5/7--xxxxxxxxxxxx--5/7--xxxxxxxxxxxx--5/7-----------|
A|-5/7--xxxxxxxxxxxx--3/5--xxxxxxxxxxxx--5/7--xxxxxxxxxxxx--3/5-----------|
E|-3/5-----------------------------------3/5------------------------------|

e|-------------------------------------------------------------------------|
B|-------------------------------------------------------------------------|
G|------xxxxxxxxxxxx--5/7--xxxxxxxxxxxx-------xxxxxxxxxxxx--5/7~~~~~-------|
D|-5/7--xxxxxxxxxxxx--5/7--xxxxxxxxxxxx--5/7--xxxxxxxxxxxx--5/7~~~~~-------|
A|-5/7--xxxxxxxxxxxx--3/5--xxxxxxxxxxxx--5/7--xxxxxxxxxxxx--3/5~~~~~-------|
E|-3/5-----------------------------------3/5-------------------------------|


Chorus
e|---------------------------------|
B|---------------------------------|
G|-5-------------------------------|
D|----7--5--7-7-5---5h7p5----------|
A|----------------7-------7-5-3--0-|
E|---------------------------------|

e|---------------------------------| x 4
B|---------------------------------|
G|-5-------------------------------|
D|----7--5--7-7-5---5h7p5----------|
A|----------------7-------7-5-3-x-x|
E|---------------------------------|


Bridge
e|--------------------------------------|  x 6
B|--------------------------------------|
G|--------------------------------------|
D|---------7p5-7p5-7p5-7p5--------------|
A|---------------------------10\9\8-----|
E|-5-5-5-5--------------------8\7\6-----|


Solo
						        BU
e|-5p3---5p3---5p3---5p3---5p3---5p3---5p3---5p3------------------|
B|----5p3---5p3---5p3---5p3---5p3---5p3---5p3---5p3---------------|
G|----------------------------------------------------------------|
D|------------------------------------------------------5~~~~~~---|
A|------------------------------------------------------7(9)~~~---|
E|----------------------------------------------------------------|

          BU BD                            BU
e|------------------------------------------------------|
B|-----5-7-7(8)7--5---------5-7-7(8)7--5----------------|
G|-5/7------------------5/7-----------------------------|
D|------------------------------------------------------|
A|-----------------------------------------5(7)~~~~~~~--|
E|------------------------------------------------------|

    BU___________________BD
e|----------15------15----------------|
B|-15(17)------(17)----(17)15--13-----|
G|--------------------------------14--|
D|------------------------------------|
A|------------------------------------|
E|------------------------------------|

    BU         BU     BU      BU    BU  BD
e|-15(17)-----15(17)-15(17)--15(17)-15(17)15-----|
B|-----------------------------------------------|
G|-----------------------------------------------|
D|-----------------------------------------------|
A|-----------------------------------------------|
E|-----------------------------------------------|

                                                                    BU
e|-15-12----12-------------------------------------------------------------|
B|-------15----15-13-15-13----15-13----------------------------------------|
G|-------------------------14-------14-14-12----14-12----12--------12(14)--|
D|-------------------------------------------14-------14----15-12----------|
A|-------------------------------------------------------------------------|
E|-------------------------------------------------------------------------|


End
e|------------------|
B|------------------|
G|------------------|
D|-5/7~~~~\---------|
A|-5/7~~~~\---------|
E|-3/5~~~~\---------|
Tap to rate this tab
 
# A B C D E F G H I J K L M N O P Q R S T U V W X Y Z