Song name
# A B C D E F G H I J K L M N O P Q R S T U V W X Y Z

Reef - Saturday tab

Reef: Saturday off the Getwaway album.

Intro: x3
        x2        | then
e:----------------|------------------------|
B:----------------|------------------------|
G:----------------|------------------------|
D:--3--3xxx-1-1-1-|-3--3xxx-1-1-1--1-1-1---|
A:--3--3xxx-1-1-1-|-3--3xxx-1-1-1--1-1-1---|
D:--3--3xxx-1-1-1-|-3--3xxx-1-1-1--1-1-1---|

Verse:
e:---------------|
B:---------------|
G:------0-----0--|
D:---10-----8----|
A:-8------6------|
D:---------------|

Then half way through first verse it changes to this:
e:---------------|
B:---------------|
G:------0-----0--|
D:---12-----10---|
A:-10-----8------|
D:---------------|

Then back to this:
e:---------------|
B:---------------|
G:------0-----0--|
D:---10-----8----|
A:-8------6------|
D:---------------|

Chorus: (each chord x8)
e:-------------|
B:-------------|
G:-------------|
D:--8--4--6--6-|
A:--8--4--6--6-|
D:--8--4--6--6-|

At the end of the chorus it goes back to this:
        x2        | then
e:----------------|------------------------|
B:----------------|------------------------|
G:----------------|------------------------|
D:--3--3xxx-1-1-1-|-3--3xxx-1-1-1--1-1-1---|
A:--3--3xxx-1-1-1-|-3--3xxx-1-1-1--1-1-1---|
D:--3--3xxx-1-1-1-|-3--3xxx-1-1-1--1-1-1---|

Sorry i dont have the solos or anything and email me for any changes or corrections :) 
Tap to rate this tab
# A B C D E F G H I J K L M N O P Q R S T U V W X Y Z