Song name
# A B C D E F G H I J K L M N O P Q R S T U V W X Y Z

Reel 2 Real - I Like To Move It tab

L.B.J. TRUMPET LINE 08-09 
;-#)> 

Song: I like to move it
Artist: N/A 
Album: N/A

Tunning:
--------
Standard (EADGBe)

this is a really awesome song to play, especialy at parties! 
i heard this song from my friend J.J. in band class, he was playing it on the trumpet
and i thught, why not play it on a guitar, so i figured out the song and decided
to share it with the world, well atleast the U.G. world. :D

Guitar 1:
   |---------------------------------------------------------------------------------|
   |                                                                              X3 |
e|||-------------------|-------------------|-------------------|--------------------||
B|||-------------------|-------------------|-------------------|--------------------||
G|||O------------------|-------------------|-------------------|-------------------O||
D|||O-------5-----3--5-|--------5-----3--5-|--------5-----3--5-|--------5-----3--5-O||
A|||-3-3-3-3-6-6-5--5--|-3-3-3-3-6-6-5--5--|-3-3-3-3-6-6-5--5--|-3-3-3-3-6-6-5--5---||
E|||-------------------|-------------------|-------------------|--------------------||

                
-------------------|-------------------|
-------------------|-------------------|
-------------------|-------------------|
-------5-----5-----|--5-----3--5-------|
-3----3-6---5-3----|-3-6-6-5--5--------|
-------------------|-------------------|

 |---------------------------------------------------------------------------------|
 |                                                                              X3 |
||-------------------|-------------------|-------------------|--------------------||
||-------------------|-------------------|-------------------|--------------------||
||O------------------|-------------------|-------------------|-------------------O||
||O-------5-----3--5-|--------5-----3--5-|--------5-----3--5-|--------5-----3--5-O||
||-3-3-3-3-6-6-5--5--|-3-3-3-3-6-6-5--5--|-3-3-3-3-6-6-5--5--|-3-3-3-3-6-6-5--5---||
||-------------------|-------------------|-------------------|--------------------||

                                        $$$$$$$$$$$$$$$$$$$$$$$$$$$$$$$$$$$$$$$
-------------------|-------------------|-------------------|-------------------|
-------------------|-------------------|-------------------|-------------------|
------[REST]-------|------[REST]-------|-------------------|-------------------|
-------------------|-------------------|-------5-----5-----|--5-----3--5-------|
-------------------|-------------------|-3----3-6---5-3----|-3-6-6-5--5--------|
-------------------|-------------------|-------------------|-------------------|


 |---------------------------------------------------------------------------------|
 |                                                                              X3 |
||-------------------|-------------------|-------------------|--------------------||
||-------------------|-------------------|-------------------|--------------------||
||O------------------|-------------------|-------------------|-------------------O||
||O-------5-----3--5-|--------5-----3--5-|--------5-----3--5-|--------5-----3--5-O||
||-3-3-3-3-6-6-5--5--|-3-3-3-3-6-6-5--5--|-3-3-3-3-6-6-5--5--|-3-3-3-3-6-6-5--5---||
||-------------------|-------------------|-------------------|--------------------||



|-------------------|-------------------|-------------------|--------------------|
|-------------------|-------------------|-------------------|--------------------|
|-------------------|-------------------|-------------------|--------------------|
|--------5-----3--5-|--------5-----3--5-|--------5-----3--5-|--------5-----3--5--|
|-3-3-3-3-6-6-5--5--|-3-3-3-3-6-6-5--5--|-3-3-3-3-6-6-5--5--|-3-3-3-3-6-6-5--5---|
|-------------------|-------------------|-------------------|--------------------|



After you play all that on top, this part gets into the techno mode(that's what i call it) 
it's when the drums just plays on the bass and high-hat "um tst um tst um tst...etc."
                                        
                                         Snare drum comes in
                                                here
|-------------------|-------------------|-------------------|--------------------|
|-------------------|-------------------|-------------------|--------------------|
|-------------------|-------------------|-------------------|--------------------|
|--------5-----3--5-|--------5-----3--5-|--------5-----3--5-|--------5-----3--5--|
|-3-3-3-3-6-6-5--5--|-3-3-3-3-6-6-5--5--|-3-3-3-3-6-6-5--5--|-3-3-3-3-6-6-5--5---|
|-------------------|-------------------|-------------------|--------------------|
 
                                         The guy starts singing
                                                 here
|-------------------|-------------------|-------------------|--------------------|
|-------------------|-------------------|-------------------|--------------------|
|-------------------|-------------------|-------------------|--------------------|
|--------5-----3--5-|--------5-----3--5-|--------5-----3--5-|--------5-----3--5--|
|-3-3-3-3-6-6-5--5--|-3-3-3-3-6-6-5--5--|-3-3-3-3-6-6-5--5--|-3-3-3-3-6-6-5--5---|
|-------------------|-------------------|-------------------|--------------------|

-------------------|-------------------|
-------------------|-------------------|
-------------------|-------------------|
--------5-----3--5-|--------5-----3--5-|
-3-3-3-3-6-6-5--5--|-3-3-3-3-6-6-5--5--|
-------------------|-------------------|end
                
There you go the whole song of "I like to move it"
But i dont like to play it like that because it gets boring after awhile so i
came up with a cool little ditty that you can play and it'll make the song sound even better
I CAME UP WITH IT, IT IS NOT A PART OF THIS SONG, OK?
you can also add phasers and things like that if you have them and that will make
the whole song sound 110% better!

Guitar 2:
-------------------|-------------------|-------------------|-------------------|
-------------------|-------------------|-------------------|-------------------|
------7-----5--7---|-------7-----7-----|--7-----5--7-------|-------------------|
-5-5-5-8-8-7--7----|-5----5-8---7-5----|-5-8-8-7--7--------|-------------------|
-------------------|-------------------|-------------------|-------------------|
-------------------|-------------------|-------------------|-------------------|
   / \                   / \              / \
    |                     |                |
    |                     |                |
play that as            and this when you see
many times              the "$" in notes above.
needed throught
the song


Guitar 3:               
-------------------|-------------------|-------------------|-------------------|
-------------------|-------------------|-------------------|-------------------|
-------------------|-------------------|-------------------|-------------------|
-------------------|-------------------|-------------------|-------------------|
--------5-----3--5-|-----5----5--------|--5-----3--5-------|-------------------|
-3-3-3-3-6-6-5--5--|-3--3-6--5-3-------|-3-6-6-5--5--------|-------------------|
   / \                   / \              / \
    |                     |                |
    |                     |                |
play that as            and this when you see
many times              the "$" in notes above.
needed throught
the song

L.B.J. TRUMPET LINE 08-09 
;-#)> 
Tap to rate this tab
# A B C D E F G H I J K L M N O P Q R S T U V W X Y Z