Guitaretab - guitar tabs
Song name
# A B C D E F G H I J K L M N O P Q R S T U V W X Y Z

Reel Big Fish - Sell Out tab

I'm tabbing this in E, as I don't understand where
everyone is getting the idea that this is in Eb. It's
long, but hopefully easy to follow. Good luck.

|Intro|

E|--------------------------|
B|--------------------------|
G|--------------------------|
D|--6-6-5-5-6-----5-8---3-6-|  X3
A|--6-6-5-5-6---6-----4-----|
E|--4-4-3-3-4---------------|

|Intro on the 4th time|

E|-----------------|
B|-----------------|
G|-----------------|
D|--6-6-5-5-6--/13-|
A|--6-6-5-5-6--/13-|
E|--4-4-3-3-4--/11-|

|Pre-verse (Play with the rhythms as you see fit)|

E|-----------------------------------|
B|-----------------------------------|
G|------------------6-6-666-8-8-888--|
D|--6-6-666-8-8-888-6-6-666-8-8-888--| X4
A|--6-6-666-8-8-888-4-4-444-6-6-666--|
E|--4-4-444-6-6-666------------------|

|Verse (In ska upbeats)|

E|--4-4-4-4--6-6-6-6--9--9--9--9---11-11-11-11-|
B|--4-4-4-4--6-6-6-6--9--9--9--9---11-11-11-11-|
G|--5-5-5-5--6-6-6-6--10-10-10-10--12-12-12-12-|
D|--6-6-6-6--8-8-8-8--11-11-11-11--13-13-13-13-| X2
A|---------------------------------------------|
E|---------------------------------------------|

E|-----------------------------------|
B|-----------------------------------|
G|------------------6-6-666-8-8-888--|
D|--6-6-666-8-8-888-6-6-666-8-8-888--| Not ska upbeats, obviously
A|--6-6-666-8-8-888-4-4-444-6-6-666--|
E|--4-4-444-6-6-666------------------|

E|--4-4-4-4--6-6-6-6--9--9--9--9---11-11-11-11-|
B|--4-4-4-4--6-6-6-6--9--9--9--9---11-11-11-11-|
G|--5-5-5-5--6-6-6-6--10-10-10-10--12-12-12-12-|
D|--6-6-6-6--8-8-8-8--11-11-11-11--13-13-13-13-|
A|---------------------------------------------|

E|-------------------|
E|--4-4-4-4--6-6-6-6-|
B|--4-4-4-4--6-6-6-6-|
G|--5-5-5-5--6-6-6-6-|
D|--6-6-6-6--8-8-8-8-|
A|-------------------|
E|-------------------|

E|-----------------------------------|
B|-----------------------------------|
G|--5-5-5-5--6-6-6-6--8-8-8-8-8-8-8--|
D|--5-5-5-5--6-6-6-6--8-8-8-8-8-8-8--|
A|--3-3-3-3--4-4-4-4--6-6-6-6-6-6-6--|
E|-----------------------------------|

|Prechorus|

E|--4-4--3-3--6-6-|
B|--4-4--4-4--6-6-|
G|--5-5--5-5--7-7-|
D|--6-6--5-5--8-8-| X3
A|----------------|
E|----------------|

|Prechorus gtr. pt. 2 (If you have 2 guitars at your   |
|disposal. The horns and bassshould cover it otherwise)|

E|-----------|
B|-----------|
G|--6-6-6----|
D|--6-6-6-6--| X3
A|--4-4-4-6--|
E|--------4--|

E|-----------------------|
B|-----------------------|
G|--6-6-6-6--8-8--5-6-8--|
D|--6-6-6-6--8-8--5-6-8--| On the fourth time
A|--4-4-4-4--6-6--3-4-6--|
E|-----------------------|

|Chorus|

E|--4--4--9--11--|
B|--4--4--9--11--|
G|--5--5--10-12--|
D|--6--6--11-13--| X4
A|---------------|
E|---------------|

|2nd Pre-verse|

E|-----------------------------------|
B|-----------------------------------|
G|------------------6-6-666-8-8-888--|
D|--6-6-666-8-8-888-6-6-666-8-8-888--| X4
A|--6-6-666-8-8-888-4-4-444-6-6-666--|
E|--4-4-444-6-6-666------------------|

|2nd Verse|

E|--4-4-4-4--6-6-6-6--9--9--9--9---11-11-11-11-|
B|--4-4-4-4--6-6-6-6--9--9--9--9---11-11-11-11-|
G|--5-5-5-5--6-6-6-6--10-10-10-10--12-12-12-12-|
D|--6-6-6-6--8-8-8-8--11-11-11-11--13-13-13-13-| X3
A|---------------------------------------------|
E|---------------------------------------------|

E|-9--9--9--9---11-11-11-11-|
B|-9--9--9--9---11-11-11-11-|
G|-10-10-10-10--12-12-12-12-|
D|-11-11-11-11--13-13-13-13-|
A|--------------------------|
E|--------------------------|

E|-----------------------------------|
B|-----------------------------------|
G|--5-5-5-5--6-6-6-6--8-8-8-8-8-8-8--|
D|--5-5-5-5--6-6-6-6--8-8-8-8-8-8-8--|
A|--3-3-3-3--4-4-4-4--6-6-6-6-6-6-6--|
E|-----------------------------------|

|Prechorus|
[ Tab from: http://www.guitaretab.com/r/reel-big-fish/128097.html ]
E|--4-4--3-3--6-6-|
B|--4-4--4-4--6-6-|
G|--5-5--5-5--7-7-|
D|--6-6--5-5--8-8-| X3
A|----------------|
E|----------------|

|Prechorus gtr. pt. 2|

E|-----------|
B|-----------|
G|--6-6-6----|
D|--6-6-6-6--| X3
A|--4-4-4-6--|
E|--------4--|

E|-----------------------|
B|-----------------------|
G|--6-6-6-6--8-8--5-6-8--|
D|--6-6-6-6--8-8--5-6-8--| On the fourth time
A|--4-4-4-4--6-6--3-4-6--|
E|-----------------------|

|Chorus|

E|--4--4--9--11--|
B|--4--4--9--11--|
G|--5--5--10-12--|
D|--6--6--11-13--| X4
A|---------------|
E|---------------|

|2nd... Intro...thing...?|

E|--------------------------|
B|--------------------------|
G|--------------------------|
D|--6-6-5-5-6-----5-8---3-6-|  X3
A|--6-6-5-5-6---6-----4-----|
E|--4-4-3-3-4---------------|

|The 4th time|
               ....
E|-------------------|
B|-------------------|
G|-------------------|
D|--6-6-5-5-6--66666-|
A|--6-6-5-5-6--66666-|
E|--4-4-3-3-4--44444-|

|Bridge|

E|-----------------------------------|
B|-----------------------------------|
G|-5-5-555--6-6-666------------------|
D|-5-5-555--6-6-666--6-6-666-6-6-666-| X2
A|-3-3-333--4-4-444--6-6-666-6-6-666-|
E|-------------------4-4-444-4-4-444-|

E|------------------------------------|
B|------------------------------------|
G|-----------6-6-666------------------|
D|--8-8-888--6-6-666--6-6-666-6-6-666-|
A|--8-8-888--4-4-444--6-6-666-6-6-666-|
E|--6-6-666-----------4-4-444-4-4-444-|

E|------------------------------------|
B|------------------------------------|
G|----------5-5-555--6-6-666--8-8-888-|
D|-8-8-888--5-5-555--6-6-666--8-8-888-|
A|-8-8-888--3-3-333--4-4-444--6-6-666-|
E|-6-6-666----------------------------|

|Prechorus|

E|--4-4--3-3--6-6-|
B|--4-4--4-4--6-6-|
G|--5-5--5-5--7-7-|
D|--6-6--5-5--8-8-| X3
A|----------------|
E|----------------|

|Prechorus gtr. pt. 2|

E|-----------|
B|-----------|
G|--6-6-6----|
D|--6-6-6-6--| X3
A|--4-4-4-6--|
E|--------4--|

E|-----------------------|
B|-----------------------|
G|--6-6-6-6--8-8--5-6-8--|
D|--6-6-6-6--8-8--5-6-8--| On the fourth time
A|--4-4-4-4--6-6--3-4-6--|
E|-----------------------|

|Chorus|

E|--4--4--9--11-|
B|--4--4--9--11-|
G|--5--5--10-12-|
D|--6--6--11-13-|
A|--------------|
E|--------------|

             Quickly
                V
E|--4--4--9--11-4-|
B|--4--4--9--11-4-|
G|--5--5--10-12-5-|
D|--6--6--11-13-6-|
A|----------------|
E|----------------|

|3nd Pre-verse|

E|-----------------------------------|
B|-----------------------------------|
G|------------------6-6-666-8-8-888--|
D|--6-6-666-8-8-888-6-6-666-8-8-888--| X3
A|--6-6-666-8-8-888-4-4-444-6-6-666--|
E|--4-4-444-6-6-666------------------|

E|-------------------------|
B|-------------------------|
G|-------------------6--8--|
D|--6-6-666-8-8-888--6--8--|
A|--6-6-666-8-8-888--4--6--|
E|--4-4-444-6-6-666--------|


|Breakdown|

E|---------------------------------------|
B|---------------------------------------|
G|--------------------66666666-88888888--|
D|--66666666-88888888-66666666-88888888--| X2
A|--66666666-88888888-44444444-66666666--|
E|--44444444-66666666--------------------|

|Solo/Outro Thing|

E|--------------------------------------------------------------------|
B|--------------------------------------------------------------------|
G|--------------------------------------------------------------------|
D|-----------------10-11-13-11-10-11-10----13-11-10-11-10----10-11-10-|
A|--11-11-11-11-13----------------------11----------------11----------|
E|--------------------------------------------------------------------|

E|-------|
B|-------|
G|--13---|
D|---x---| X32
A|--11---|
E|-------|


E|------|
B|------|
G|------|
D|--6~--
A|--6~--
E|--4~--

Sorry if it was confusing. It definitely seems better than the other tabs I've seen. 
Good luck, and skank on.
-SB

 Cameron LeViere 2007, all rights reserved
Related for Sell Out tab