Guitaretab - guitar tabs
Song name
# A B C D E F G H I J K L M N O P Q R S T U V W X Y Z

Reel Big Fish - Kiss Me Deadly tab

Kiss Me Deadly (trumpet solo)
Reel Big Fish

I'm sure that this is the right way to play it. its originaly supposed to be for a 
but i found out a nice way to play it with a guitar. Pretty easy, just listen to the song to 
the timing

by the way this is my first tab.

[ Tab from: http://www.guitaretab.com/r/reel-big-fish/128098.html ]
e|-8-10-11v--10-8----------------------------------|
B|-----------------11-9-8-9------8h9p8------------|
G|----------------------------8h10------10-8--8-10-|
D|-------------------------------------------------|
A|-------------------------------------------------|
E|-------------------------------------------------|


e|--8-8h10h11-13-15-13-1110-8------8/--10-|
B|------------------------------11--11--11-|
G|-----------------------------------------|
D|-----------------------------------------|
A|-----------------------------------------|
E|-----------------------------------------|

Playing on the 11th fret on the B string the last 2 times is optional but i think it 
pretty cool because the first chord sounds akward and the next one is nice lol

Rock On!
Related for Kiss Me Deadly tab