Song name
# A B C D E F G H I J K L M N O P Q R S T U V W X Y Z

Reel Big Fish - Unity tab

----------------------------------------------------------------------------
			     SONG NAME - Band Name
----------------------------------------------------------------------------
Tabbed by:garlic bread?
Email:bords_knickords@hotmail.com

Tuning:EADGBe

Intro
e|-----------------------------------------------------------|
B|------7---9--7-------7---9--7--7--7------------------------|
G|--6---7---9--7--6----7---9--7--7--7------------------------|
D|--7---7---9--7--7----7---9--7--7--7------------------------|
A|--7---5---7--5--7----5---7--5--5--5------------------------|
E|--5-------------5------------------------------------------|

Verse
e|-------------------------------------------------------------------------|
B|--------7--7/-9--9/--7---------7--7/-9--9/--7-----------7--7/-9--9/--7---|
G|-6-6-6--7--7/-9--9/--7--6-6-6--7--7/-9--9/--7----6-6-6--7--7/-9--9/--7---|
D|-7-7-7--7--7/-9--9/--7--7-7-7--7--7/-9--9/--7----7-7-7--7--7/-9--9/--7---|
A|-7-7-7--5--5/-7--7/--5--7-7-7--5--5/-7--7/--5----7-7-7--5--5/-7--7/--5---|
E|-5-5-5------------------5-5-5--------------------5-5-5-------------------|

    You'll have to listen to the song to get the timing 'cause the strumming slows
down as Aaron & Scott start singing...

Chorus
e|--------------------------------------|
B|--------------------------------------|
G|-------7-7--9-9-9-------7-7--9-9-9----|
D|--7-7--7-7--9-9-9--7-7--7-7--9-9-9----|
A|--7-7--5-5--7-7-7--7-7--5-5--7-7-7----|
E|--5-5--------------5-5----------------|




| /  slide up
| \  slide down
| h  hammer-on
| p  pull-off
| ~  vibrato
| +  harmonic
| x  Mute note
============================================================================
Umm, thats it any questions e-mail me.
Peace Out :)
Tap to rate this tab
# A B C D E F G H I J K L M N O P Q R S T U V W X Y Z