Song name
# A B C D E F G H I J K L M N O P Q R S T U V W X Y Z

Reel Big Fish - Say Goodbye tab

-------------------------------------------------------------------------------------------
                                  Say Goodbye-Reel Big Fish
-------------------------------------------------------------------------------------------

Intro
e|-------------------------------------------<19>-|
B|------------------------------------------------|
G|--------7~-----------------7~-------------------|
D|-77-7~--7~--4~--2~--77-7~--7~--4~--2~-----------|
A|-77-7~--5~--4~--2~--77-7~--5~--4~--2~-----------|
E|-55-5~------2~--0~--55-5~------2~--0~-----------|
   **                 **          

Pre-verse
e|------9-9-10-9------------------------------9----------9-9-10-12-10-9-------------------14-12-|
B|---10----------12-10----10----------10--------12----10----------------12-10----------10-------|
G|-9-------------------11-----11-9-11----11-9-------9--------------------------11-9-11----------|
D|----------------------------------------------------------------------------------------------|
A|----------------------------------------------------------------------------------------------|
E|----------------------------------------------------------------------------------------------|

Verse

I'm not sure if he's using some sort of phaser at the beginning of the verse or if it's a
synthesizer, but it's the same notes as the rest of the verse and it's played twice

e|-------------------------------------------------|
B|-------------------------------------------------|
G|--------------------77777777---------------------|
D|----------77777777--77777777--44444444--22222222-|(X2)
A|----------77777777--55555555--44444444--22222222-|
E|-//////---55555555------------22222222--00000000-|
 pick slide  *******   *******   *******   *******

Pre-Chorus
e|---------------------------------------------------------|
B|---------------------------------------------------------|
G|---------------44-44--555---------------------4--/7--/9--|
D|-44-44--55-55--44-44--555--555--44-44--55-55--4--/7--/9--|
A|-44-44--55-55--22-22--333--555--44-44--55-55--2--/5--/7--|
E|-22-22--33-33--------------333--22-22--33-33-------------|

Chorus
e|--------------------------------------------------------------------|
B|--------------------------------------------------------------------|
G|---------44--xx-77--99----------44--xx-77--99--111111111111--9-7-9--|
D|-77--44--44--xx-77--99--77--44--44--xx-77--99--111111111111--9-7-9--|
A|-77--44--22--xx-55--77--77--44--22--xx-55--77--9-9-9-9-9-9---7-5-7--|
E|-55--22-----------------55--22--------------------------------------|
                                                 * * * * * *

Pre-verse
Verse
Pre-chorus

Chorus
e|--------------------------------------------------------------------------|
B|--------------------------------------------------------------------------|
G|---------44--xx-77--99----------44--xx-77--99--111111111111--9-7777-9999--|
D|-77--44--44--xx-77--99--77--44--44--xx-77--99--111111111111--9-7777-9999--|
A|-77--44--22--xx-55--77--77--44--22--xx-55--77--9-9-9-9-9-9---7-5555-7777--|
E|-55--22-----------------55--22--------------------------------------------|

Bridge
e|---------------------------------------------------------------------------------|
B|---------------------------------------------------------------------------------|
G|---------------------66666666--77777777----------------------66666666--77777777--|
D|-77--xxxx--77--xxxx--66666666--77777777--77--xxxx--77--xxxx--66666666--77777777--|
A|-77--xxxx--77--xxxx--44444444--55555555--77--xxxx--77--xxxx--44444444--55555555--|
E|-55--xxxx--55--xxxx----------------------55--xxxx--55--xxxx----------------------|
                        *******  ********                       *******  ********

e|------------------------------------------------------------------------------|
B|------------------------------------------------------------------------------|
G|-----------------------------------99999999\77777777--66666666--77777777------|
D|-77--xxxx--7~-6~-44444444/77777777-99999999\77777777--66666666--77777777--7~--|
A|-77--xxxx--7~-6~-44444444/77777777-77777777\55555555--44444444--55555555--7~--|
E|-55--xxxx--5~-4~-22222222/55555555----------------------------------------5~--|
                                                         *******  ********

This next part is essentially the intro, but the horns play most of it. It goes
horns, then guitar, horns, and then guitar again

e|----------------------------------------------|
B|----------------2-----------------------------|
G|---------2--------4~----------------2---------|
D|-/4-2-/4---/4-2-------------/4-2-/4-----------|
A|--------------------------------------4-2~\---|
E|----------------------------------------------|

Chorus is played once without guitar and then with guitar
Then a new chorus is played that goes like this

e|-------------------------------------------|            |-----|
B|-------------------------------------------|            |-----|
G|---------------------44444444--7777--9999--|            |-----|
D|-77777777--44444444--44444444--7777--9999--|(X4) end on |-7~--|
A|-77777777--44444444--22222222--5555--7777--|            |-7~--|
E|-55555555--22222222------------------------|            |-5~--|
(After the second time through a
 second guitar plays the pre-verse)


| /  slide up
| \  slide down
| h  hammer-on
| p  pull-off
| ~  vibrato/let ring
| <>  harmonic
| x  scratch
Tap to rate this tab
 
# A B C D E F G H I J K L M N O P Q R S T U V W X Y Z