Song name
# A B C D E F G H I J K L M N O P Q R S T U V W X Y Z

Reel Big Fish - Revolution tab

Song: Revolution
Band: Reel Big Fish
Album: We're Not Happy 'till You're Not Happy

Intro/Bass riff:

e|------------------------------------------|
B|------------------------------------------|
G|------------------------------------------|
D|-----3-----------------------3------------|
A|-------1-1/55-5-3---------------1-1/5-----|
D|-3-3-------------7-5-7---3-3----------7-0-|

Chords:

e|-1-1--1-1--5-5--3-3-|
B|-1-1--3-3--6-6--5-5-|
G|-2-2--3-3--7-7--5-5-|
D|-3-3--3-3--7-7--5-5-|
A|--------------------|
D|--------------------|

There're another sounds going during the song, but I don't tab it, Sorry)
Tap to rate this tab
# A B C D E F G H I J K L M N O P Q R S T U V W X Y Z