Song name
# A B C D E F G H I J K L M N O P Q R S T U V W X Y Z

Reel Big Fish - Fire tab

This song was really hard to tab because of all the other stuff happening in the song. 
sure its write on most of it. Its my first tab so dont get mad at me...


The Fire, Reel Big Fish
Where not happy till' your not happy.
{E,A,D,G,B,e,}
intro
e---------------------------------|
B---------------------------------|
G----------------7----------------|
D-----7------5---7----------------|
A---7------5-----5----------------|
E-5------3------------------------|

{Gtr 2}
------5---3---8-------------------|
----5---3-----8-------------------|
--6---4-------9-------------------|
----------------------------------|
----------------------------------|
----------------------------------|

[verse]
e---------------------------------|
B---------------------------------|
G--------------7------------------|
D-7------5-----7------------------|
A-7------5-----5------------------|
E-5------3------------------------|


[upstrokes]
---5x----3x--3-3------------------|
---5x----3x--3-3------------------|
---6x----4x--4-4------------------|
----------------------------------|
----------------------------------|
----------------------------------|

im not to sure about the pre-chorus...
-----------------------------------|
-----------------------------------|
-----------------11----------9-----|
--5-----7--------11-5----7---9-----|
--5-----7--------9--5----7---7-----|
--3-----5-----------3----5---------|

{chorus}
[upstrokes]
---5x----3x--3-3------------------|
---5x----3x--3-3------------------|
---6x----4x--4-4------------------|
----------------------------------|
----------------------------------|
----------------------------------|

Thats about as far as i can help u, sorry, i wish i could do more.
Pat Uwishucouldknow.
Tap to rate this tab
# A B C D E F G H I J K L M N O P Q R S T U V W X Y Z