Song name
# A B C D E F G H I J K L M N O P Q R S T U V W X Y Z

Reel Big Fish - Hate You tab

Well, i noticed there wasn't a tab for this, so i'm gonna tab it.

This is featured on "Everything Sucks" and will be remade on "Monkey's For Nothing and 
Chimps for Free."


Intro

|------------------------------|
|------------------------------|
|-5----------------5-----------|
|-5---5---3--5---5-5--5-x-x-x-x|
|-3---5---3--5---5-3--5-x-x-x-x|
|-----3---1--3---3----3-x-x-x-x|

Pre-Verse (X8)

|------------------|
|------------------|
|-5----------------|
|-5---5---3--5---5-|
|-3---5---3--5---5-|
|-----3---1--3---3-|

Verse (X4)
-I'm aware these aren't the right upstrokes, but this is how i hit 'em, and they still 
find. Fix it with the right upstrokes if you know them.

|-5x-55x-55x--1010x-1212x-|
|-5x-55x-55x--1010x-1212x-|
|-5x-55x-55x--1010x-1212x-|
|-5x-55x-55x--1010x-1212x-|
|-------------------------|
|-------------------------|

Pre-Verse(X4)

|------------------|
|------------------|
|-5----------------|
|-5---5---3--5---5-|
|-3---5---3--5---5-|
|-----3---1--3---3-|

Verse(X4)

|-5x-55x-55x--1010x-1212x-|
|-5x-55x-55x--1010x-1212x-|
|-5x-55x-55x--1010x-1212x-|
|-5x-55x-55x--1010x-1212x-|
|-------------------------|
|-------------------------|

Pre-Chorus

|------------------|
|------------------|
|-5----------9-----|
|-5------5---9-9-7-|
|-3------5---7-9-7-|
|--------3-----7-5-|

Chorus(X4)

|---------------------|
|---------------------|
|-------5--5-3-3-33-5-|
|-3--33-5--5-3-3-33-5-|
|-3--33-3--3-1-1-11-3-|
|-1--11---------------|

Bridge

|-----------|
|-----------|
|-----3---5-|
|-5---3---5-|
|-5---1---3-|
|-3---------|

Pre-Verse(X8)

|------------------|
|------------------|
|-5----------------|
|-5---5---3--5---5-|
|-3---5---3--5---5-|
|-----3---1--3---3-|

Verse(X4)

|-5x-55x-55x--1010x-1212x-|
|-5x-55x-55x--1010x-1212x-|
|-5x-55x-55x--1010x-1212x-|
|-5x-55x-55x--1010x-1212x-|
|-------------------------|
|-------------------------|

Pre-Verse(X4)

|------------------|
|------------------|
|-5----------------|
|-5---5---3--5---5-|
|-3---5---3--5---5-|
|-----3---1--3---3-|

Verse(X4)

|-5x-55x-55x--1010x-1212x-|
|-5x-55x-55x--1010x-1212x-|
|-5x-55x-55x--1010x-1212x-|
|-5x-55x-55x--1010x-1212x-|
|-------------------------|
|-------------------------|

Pre-Chorus

|------------------|
|------------------|
|-5----------9-----|
|-5------5---9-9-7-|
|-3------5---7-9-7-|
|--------3-----7-5-|

Chorus(X4)

|---------------------|
|---------------------|
|-------5--5-3-3-33-5-|
|-3--33-5--5-3-3-33-5-|
|-3--33-3--3-1-1-11-3-|
|-1--11---------------|

Intro to "New Verse"(X3)
-Parentheses represent single strokes

|-17-(17)(17)x-(17)(17)x-|
|-17-(17)(17)x-(17)(17)x-|
|-17-(17)(17)x-(17)(17)x-|
|-17-(17)(17)x-(17)(17)x-|
|------------------------|
|------------------------|

Add this upstroke on the third repetition:

|-17-17x-17------|
|-17-17x-17------|
|-17-17x-17------|
|-17-17x-17------|
|----------------|
|----------------|

Pre "New Verse"(X8)

|-9--9--9--9--10--10/12--12-|
|-9--9--9--9--10--10/12--12-|
|-9--9--9--9--10--10/12--12-|
|-9--9--9--9--10--10/12--12-|
|---------------------------|
|---------------------------|

"New Verse"(X3)

|--------------|
|--------------|
|--------------|
|-5---3---3~~~~|
|-5---3---3~~~~|
|-7---5---1~~~~|

Bridge to Pre-Verse

|------------------------------------|
|------------------------------------|
|----------------------------------5-|
|-3-3333333-333333-5-5555555-5555555-|
|-3-3333333-333333-5-5555555-5555553-|
|-1-1111111-111111-3-3333333-333333--|

|-(17)(17)-17-16-16-14-(14)(16)-16-16--(17)(17)-17-16------|
|-(17)(17)-17-16-16-14-(14)(16)-16-16--(17)(17)-17-16------|
|-(17)(17)-17-16-16-14-(14)(16)-16-16--(17)(17)-17-16------|
|-(17)(17)-17-16-16-14-(14)(16)-16-16--(17)(17)-17-16-x-x-x|
|-----------------------------------------------------x-x-x|
|-----------------------------------------------------x-x-x|

Pre-Verse(X8)

|------------------|
|------------------|
|-5----------------|
|-5---5---3--5---5-|
|-3---5---3--5---5-|
|-----3---1--3---3-|

Verse(X4)

|-5x-55x-55x--1010x-1212x-|
|-5x-55x-55x--1010x-1212x-|
|-5x-55x-55x--1010x-1212x-|
|-5x-55x-55x--1010x-1212x-|
|-------------------------|
|-------------------------|

Pre-Verse(X4)

|------------------|
|------------------|
|-5----------------|
|-5---5---3--5---5-|
|-3---5---3--5---5-|
|-----3---1--3---3-|

Verse(X4)

|-5x-55x-55x--1010x-1212x-|
|-5x-55x-55x--1010x-1212x-|
|-5x-55x-55x--1010x-1212x-|
|-5x-55x-55x--1010x-1212x-|
|-------------------------|
|-------------------------|

Pre-Chorus

|------------------|
|------------------|
|-5----------9-----|
|-5------5---9-9-7-|
|-3------5---7-9-7-|
|--------3-----7-5-|

Chorus(X8)

|---------------------|
|---------------------|
|-------5--5-3-3-33-5-|
|-3--33-5--5-3-3-33-5-|
|-3--33-3--3-1-1-11-3-|
|-1--11---------------|

Horns play out the end. :)
Tap to rate this tab
# A B C D E F G H I J K L M N O P Q R S T U V W X Y Z