Song name
# A B C D E F G H I J K L M N O P Q R S T U V W X Y Z

Reel Big Fish - Authority Song tab

This is the only tab for this song i just couldn't get the solo, but this is my 
first tab sorry if there's any screw ups.

Intro:
|-----------------------|
|-----------------------|
|-----------------------|
|-----------------------|
|0-3-0-4-555-4-555-4-555|
|-----------------------|
This is done 2 times in the intro

|-----------------------|
|-----------------------|
|-----------------------|
|-4--7-9-7--------------|
|5--------9---2--4------|
|-----------3--5--------|
four times

Verse:
|-----------------------|
|-----------------------|
|7----------------------|
|7-5-7------------------|
|5-5-7------------------|
|--3-5------------------|
Listen to song for strumming
pattern

Chorus:
|--------3-3-5-5|
|7-7-7-7-3-3-5-5|
|7-7-7-7-4-4-6-6|
|7-7-7-7--------|
|---------------|
|---------------|
All Ska Upstrokes ^ and when you change from [334] to [556] slide up
Tap to rate this tab
# A B C D E F G H I J K L M N O P Q R S T U V W X Y Z