Song name
# A B C D E F G H I J K L M N O P Q R S T U V W X Y Z

Reel Big Fish - The Kids Dont Like It tab

-------------------------------------------------------------------------------
	             The Kids Don't Like It - Reel Big Fish
-------------------------------------------------------------------------------
Tabbed by:Vtrillo627
Email:it_dies_today84@yaoo.com

Tuning:Standard


Intro:

e|-----------------x-x-x-4-4\-----------------x-x-x-6b--| 
B|-----------------x-x-x-4-4\-----------------x-x-x-6b--|  
G|-----------------x-x-x----------------------x-x-x-----| 
D|-----------6-6\---------------------------------------|  
A|-----3-6-3----------------------3-6-3-4-4\------------| 
E|---4--------------------------4-----------------------| 

e|-----------------x-x-x-4-4\-----------------x-x-x-x---| 
B|-----------------x-x-x-4-4\-----------------x-x-x-6---|  
G|-----------------x-x-x----------------------x-x-x-6---| 
D|-----------6-6\-----------------------------------6---|  
A|-----3-6-3----------------------3-6-3-4-4\--------4---| 
E|---4--------------------------4-----------------------| 



Verse:

e|---4--------1---------------|
B|---4--------1--------6------|
G|---5--x8----1--x4----6--x4--|  x4
D|---6--------3--------6------|
A|---------------------4------|
E|----------------------------|

e|---------------------------------------------------|
B|--8-8-8-8-----------------8-8-8-8------------------|
G|--8-8-8-8-----------------8-8-8-8-----6------------|
D|--8-8-8-8-------3---------8-8-8-8-----6---8-8-8-8--|
A|--6-6-6-6---4-6--4--------6-6-6-6-----4---8-8-8-8--|
E|------------------4-----------------------6-6-6-6--|



Chorus:

e|--x------x--x-----x------x--x-----x------x-----------------------------|
B|--x------x--x-----x------x--x-----x------x-----------------------------|
G|--x--x6--6--8-----x--x6--6--x-----x--x6--6--x6-------------------------| x2
D|--6------6--8-----6------6--8-----6------6--------8b----8b----8b----8b-|
A|--6------4--6-----6------4--8-----6------4-----------------------------|
E|--4------x--x-----4------x--6-----4------x-----6-6---6-6---6-6---6-6---|



Verse:

e|---4--------1---------------|
B|---4--------1--------6------|
G|---5--x8----1--x4----6--x4--|  x4
D|---6--------3--------6------|
A|---------------------4------|
E|----------------------------|

e|---------------------------------------------------|
B|--8-8-8-8-----------------8-8-8-8------------------|
G|--8-8-8-8-----------------8-8-8-8-----6------------|
D|--8-8-8-8-------3---------8-8-8-8-----6---8-8-8-8--|
A|--6-6-6-6---4-6--4--------6-6-6-6-----4---8-8-8-8--|
E|------------------4-----------------------6-6-6-6--|



Chorus:

e|--x------x--x-----x------x--x-----x------x-----------------------------|
B|--x------x--x-----x------x--x-----x------x-----------------------------|
G|--x--x6--6--8-----x--x6--6--x-----x--x6--6--x6-------------------------| x2
D|--6------6--8-----6------6--8-----6------6--------8b----8b----8b----8b-|
A|--6------4--6-----6------4--8-----6------4-----------------------------|
E|--4------x--x-----4------x--6-----4------x-----6-6---6-6---6-6---6-6---|



Bridge:

e|---x-------x------x------x---x---|
B|---x-------6------x------6---8---|
G|---5--x8---6--x8--5--x8--6---8---|
D|---6-------6------6------6---8---|
A|---6-------4------6------4---6---|
E|---4-------x------4------x---x---|



Intro:

e|-----------------x-x-x-4-4\-----------------x-x-x-6b--| 
B|-----------------x-x-x-4-4\-----------------x-x-x-6b--|  
G|-----------------x-x-x----------------------x-x-x-----| 
D|-----------6-6\---------------------------------------|  
A|-----3-6-3----------------------3-6-3-4-4\------------| 
E|---4--------------------------4-----------------------| 

e|-----------------x-x-x-4-4\-----------------x-x-x-x---| 
B|-----------------x-x-x-4-4\-----------------x-x-x-6---|  
G|-----------------x-x-x----------------------x-x-x-6---| 
D|-----------6-6\-----------------------------------6---|  
A|-----3-6-3----------------------3-6-3-4-4\--------4---| 
E|---4--------------------------4-----------------------| 



Verse:  Trumpet solo palying

e|---4--------1---------------|
B|---4--------1--------6------|
G|---5--x8----1--x4----6--x4--|  x4
D|---6--------3--------6------|
A|---------------------4------|
E|----------------------------|

e|---------------------------------------------------|
B|--8-8-8-8-----------------8-8-8-8------------------|
G|--8-8-8-8-----------------8-8-8-8-----6------------|
D|--8-8-8-8-------3---------8-8-8-8-----6---8-8-8-8--|
A|--6-6-6-6---4-6--4--------6-6-6-6-----4---8-8-8-8--|
E|------------------4-----------------------6-6-6-6--|



Chorus:

e|--x-------x---------|
B|--x-------x---------|
G|--x-------x--x12----|  
D|--6-------8---------|
A|--6-------8---------|
E|--4-------6---------|

e|--x------x--x-----x------x--x-----x------x-----------------------------|
B|--x------x--x-----x------x--x-----x------x-----------------------------|
G|--x--x6--6--8-----x--x6--6--x-----x--x6--6--x6-------------------------| 
D|--6------6--8-----6------6--8-----6------6--------8b----8b----8b----8b-|
A|--6------4--6-----6------4--8-----6------4-----------------------------|
E|--4------x--x-----4------x--6-----4------x-----6-6---6-6---6-6---6-6---|

e|--x------x------x------x------x------x------x------x------x--------x---|
B|--x------x------x------x------x------x------x------x------x--------x---|
G|--x--x4--6--x2--8--x2--x--x4--6--x2--x--x2--x--x4--6--x4--x--x24?--x---|
D|--6------6------8------6------6------8------6------6------8--------6---|
A|--6------4------6------6------4------8------6------4------8--------6---|
E|--4------x------x------4------x------6------4------x------6--------4---|




| /  slide up
| \  slide down
| h  hammer-on
| p  pull-off
| ~  vibrato
| +  harmonic
| x  Mute note
===============================================================================
Tap to rate this tab
 
# A B C D E F G H I J K L M N O P Q R S T U V W X Y Z