Song name
# A B C D E F G H I J K L M N O P Q R S T U V W X Y Z

Reel Big Fish - Drunk Again tab

-------------------------------------------------------------------------------
			     Drunk Again - Reel Big Fish
-------------------------------------------------------------------------------

Originally Tabbed by: Capt Carl
Email: pants@blueyonder.co.uk

Revised by: jmhummel (AT SYMBOL) gmail (PERIOD) com

* Notes:
* Some alternation in verse with dominant 7, inv F5 lead-in to C
* C Major (afterverse) => C Augmented (C E G#); 
* 	6th String optionally played open
* Bb Major (chorus) => D minor
* A Major (bridge) => A minor
* F# Major (bridge) => F# diminished (F# A C);
*	4th String open (D) optionally played,
*	F#dim is very similar to inverted D7
* D Major (bridge) => D minor 
* Some Barre chords changed to Open form for better voice leading
* Enjoy!

Tuning: Standard EADGBE
Clean Tone
Intro and Verse: (Very Slow Strumming, strong downstroke sharp upstroke)
    F       A (A7)  Bb(Bb7)    C
e|--1--1----0--0----2--2-------0---------------------------------------------|
B|--1--1----2--2----4--2----1--1-------------------------------------------O-|
G|--2--2----2--0----4--4----x--0---------------------------------------------|
D|--3-------2-------4-------3--2---------------------------------------------|
A|--3-------0-------2-------3--3-------------------------------------------O-|
E|--1------------------------------------------------------------------------|

Post-Chorus: (slightly faster, steady sturmming)
    F       C+      F       C+
e|--1--1----0--0----1--1----0--0---------------------------------------------|
B|--1--1----1--1----1--1----1--1---------------------------------------------|
G|--2--2----1--1----2--2----1--1---------------------------------------------|
D|--3--3----2--2----3--3----2--2---------------------------------------------|
A|--3--3----3--3----3--3----3--3---------------------------------------------|
E|--1--1---(0)(0)---1--1---(0)(0)--------------------------------------------|

Chorus: (Faster still, steady strumming)
    F        Eb       Dm       C#       C
e|--1-1-1-1--6-6-6-6--5-5-5-5--4-4-4-4--3-3-3-3------------------------------|
B|--1-1-1-1--8-8-8-8--6-6-6-6--6-6-6-6--5-5-5-5----------------------------O-|
G|--2-2-2-2--8-8-8-8--7-7-7-7--6-6-6-6--5-5-5-5------------------------------|
D|--3-3-3-3--8-8-8-8--7-7-7-7--6-6-6-6--5-5-5-5------------------------------|
A|--3-3-3-3--6-6-6-6--5-5-5-5--4-4-4-4--3-3-3-3----------------------------O-|
E|--1-1-1-1------------------------------------------------------------------|

Post-Chorus, Verse, Chorus, Post-Chorus

Bridge: (Slightly Distorted, steady strumming)
    Am       F#dim    F        E
e|--5-5-5-5--2-2-2-2--1-1-1-1--0-0-0-0---------------------------------------|
B|--5-5-5-5--1-1-1-1--1-1-1-1--0-0-0-0-------------------------------------O-|
G|--5-5-5-5--2-2-2-2--2-2-2-2--1-1-1-1---------------------------------------|
D|--7-7-7-7--x-x-x-x--3-3-3-3--2-2-2-2---------------------------------------|
A|--7-7-7-7--0-0-0-0--3-3-3-3--2-2-2-2-------------------------------------O-|
E|--5-5-5-5--2-2-2-2--1-1-1-1--0-0-0-0---------------------------------------|
 
    Dm       E		(repeat 4x)
e|--1-1-1-1--0-0-0-0---------------------------------------------------------|
B|--3-3-3-3--0-0-0-0---------------------------------------------------------|
G|--2-2-2-2--1-1-1-1---------------------------------------------------------|
D|--0-0-0-0--2-2-2-2---------------------------------------------------------|
A|-----------2-2-2-2---------------------------------------------------------|
E|--5-5-5-5--0-0-0-0---------------------------------------------------------|

Chorus 2x, Verse(Outro)

===============================================================================
Tap to rate this tab
# A B C D E F G H I J K L M N O P Q R S T U V W X Y Z