Song name
# A B C D E F G H I J K L M N O P Q R S T U V W X Y Z

Reel Big Fish - Slow Down tab

This is my first ever tab.  I also tabbed this by ear so there probably will be a few 
as I just kind of noodle with a few parts.  If you're having problems with anything, 
to the song or contact me at seviper1@sbcglobal.net.

Intro:
   v ^  ^ v  v ^  ^ v  v ^  ^ v  v ^  ^ v
e|-1-1--1-1--3-3--3-3--6-6--6-6--3-3--3-3-|
B|-1-1--1-1--3-3--3-3--6-6--6-6--5-5--5-5-|
G|-2-2--2-2--4-4--4-4--7-7--7-7--5-5--5-5-|
D|-3-3--3-3--5-5--5-5--8-8--8-8--5-5--5-5-|
A|-3-3--3-3--5-5--5-5--8-8--8-8--3-3--3-3-|
E|-1-1--1-1--3-3--3-3--6-6--6-6-----------|
   Fmaj      Gmaj      A#maj     Cmaj     (twice)

After the little intro part it goes into some upstrokes.  They're all the same chords, 
cheater ska chords as I call them.

e|-1---1---3---3---6---6-/-8---8---|
B|-1---1---3---3---6---6-/-8---8---|
G|-2---2---4---4---7---7-/-9---9---|
D|---------------------------------|
A|---------------------------------|
E|---------------------------------|

Then it goes into this weird little interlude.  This also goes after every chorus
     ^ ^   vv   ^  ^
e|--------------------|
B|--10-10--99---10-10-|
G|--10-10--99---10-10-|
D|--10-10--99---10-10-|
A|--------------------|
E|--------------------|
VERSE and CHORUS are the same as the second part of the intro.  It's like this for 
the rest of the song.
e|-1---1---3---3---6---6-/-8---8---|
B|-1---1---3---3---6---6-/-8---8---|
G|-2---2---4---4---7---7-/-9---9---|
D|---------------------------------|
A|---------------------------------|
E|---------------------------------|

"You've got to make it stop...".  More upstrokes, but it's just two chords.
e|-5-5-5-5--5-5-5-5-|
B|-6-6-6-6--5-5-5-5-|
G|-7-7-7-7--6-6-6-6-|
D|------------------|
A|------------------|
E|------------------|

Chorus/verse

solo time!

e|-------------3--1----10-10-10-10-10-10--8-10--8-6-5-|
B|---------------------11-11-11-11-11-11-10-11-10-8-6-|
G|-------2h3h5----------------------------------------|
D|-2/3-3----------------------------------------------|
A|----------------------------------------------------|
E|----------------------------------------------------|

e|---------------------------------------------------|
B|---------------------------------------------10-13-|
G|-5h7p5---5-5h7p5-----------------------10-12-------|
D|-------7------------5-7-88-7-5-7-5-7---------------|
A|-----------------8-8-----------------8-------------|
E|---------------------------------------------------|

e|-13/17-13--13----------------------------------------|
B|--------------13-13-11-13-11-10-11-10-8--------------|
G|----------------------------------------10--10/12/10-|
D|-----------------------------------------------------|
A|---------------------------------------------8/10/-8-|
E|-----------------------------------------------------|

e|---------------------------------------------------|
B|---------------------------------------------------|
G|-10101010--7-555-----------------------------------|
D|----------------------------------------------8-7--|
A|--8-8-8-8--5-333------5h6p5----5h6h7----5h6h7----8-|
E|------------------6h8-------6h8------6h8-----------|

prechorus again then:

e|-----1-------3-------6-------8----|
B|---1---1---3---3---6---6---8---8--|
G|-2-------4-------7-------9--------|repeat at the 2 and then finish it.
D|----------------------------------|
A|----------------------------------|
E|----------------------------------|

chorus/verse for the rest of the song.  It kind of fades out.  That's it :D

legend:
/ slide up
\ slide down
h hammer on
p pull of
Tap to rate this tab
# A B C D E F G H I J K L M N O P Q R S T U V W X Y Z