Song name
# A B C D E F G H I J K L M N O P Q R S T U V W X Y Z

Reel Big Fish - Go Away tab

Band - Reel Big Fish
Song - Go Away
Album - Everything Sucks!

Tabbed By: SumFX (Tyler Freear)

Old Song From RBF's First Album!

Intro 
|-----------------------|
|-----------------------|
|-----------------------|
|-7-77-7-77-7-----------|
|-5-55-5-55-5--5-3-2-0--|
|-----------------------|
  . .. . .. .

Verse
|-------------------------|
|-------------------------|
|-------------------------|
|-----777-----------------|
|-555-555-777-999--10-9-7-|
|-333-----555-777--8--7-5-|

Chorus
|-----------------------|
|-----------------------|
|-----------------------|
|-999--777--5-55-5-55-5-|
|-777--555--3-33-3-33-3-|
|-----------------------|
            . .. . .. .

Solo!
I'm Pretty Sure Aaron Just Improvises At The End!
So No Need To Be Picky!
|-------------------------------------------------15b-|
|-888888-121212121212--15-13-12-15-13-12-15-13-12-----|
|-----------------------------------------------------|
|-----------------------------------------------------|
|-----------------------------------------------------|
|-----------------------------------------------------|

I'm Not Too Sure About This Part, It's Very Hard To Hear

|-15151515151515-|-15p14p12-15p14p12-15p14p12-15p14p12-|
|----------------|-------------------------------------|
|----------------|-------------------------------------|
|----------------|-------------------------------------|
|----------------|-------------------------------------|
|----------------|-------------------------------------|

|-------------|-------------|
|-Pick Scrape-|-10b-10-8v---|
|-------------|-------------|
|--+----------|-------------|
|-Improvise---|-------------|
|-------------|-------------|

Structure

Intro
Verse
Chorus
Verse
Solo
Chorus
Verse

Well There You Go!
The Solo Ain't Perfect But It Works Well.

Rate & Comments Please!!!!!!
Tap to rate this tab
 
# A B C D E F G H I J K L M N O P Q R S T U V W X Y Z