Song name
# A B C D E F G H I J K L M N O P Q R S T U V W X Y Z

Reel Big Fish - Fohead tab

Band - Reel Big Fish
Song - Fo'Head
Album - Everything Sucks!

Tabbed By: SumFX (Tyler Freear)

Cool Song, Mostly Instrumental And Rather Easy!

tr = Trill (Hammer On & Pull Off Fast)
Dist. = Distortion
Play All Clean Parts In Ska Rhythm!

Intro
Dist.
|-------------------|
|-------------------|
|---9-9999-9999--9v-|
|---9-9999-9999-----|
|-/-7-7777-7777-----|
|-------------------|

Fill
Dist.
|----------------|
|----------------|
|----------------|
|-----7----------|
|-7-9-----4h5p4--|
|-------5--------|

Verse
Clean                Clean    Dist.
|-7--------------5---|-7---------------------|
|-7----7----9----5---|-7---7-----------------|
|-8----7----9----6---|-8---7-----------------|
|-9----7----9----7---|-9---7------7----------|
|-9----5----7----7---|-9---5--7-9-----4h5p4--|
|-7--------------5---|-7------------5--------|

Verse 2
Clean
|-7-------------------|
|-7----7----9----5/-7-|
|-8----7----9----5/-7-|
|-9----7----9----5/-7-|
|-9----5----7----3/-5-|
|-7-------------------|

Chorus
Dist.
|-------------------------------|--------------|
|-------------------------------|--------------|
|-9999999---------555-777--9999-|-555-777-9999-|
|-9999999-7777777-555-777--9999-|-555-777-9999-|
|-7777777-7777777-333-555--7777-|-333-555-7777-|
|---------5555555---------------|--------------|

Fill 2
Dist.
|--------------|
|--------------|
|--5tr6--7tr8--|
|--------------|
|--------------|
|--------------|

Structure

Intro
Fill
Verse x2
Verse 2
Chorus w/Fill 2
Verse x2
Verse 2 
Chorus w/Fill 2
Intro
Fill
Verse 2
Chorus w/Fill 2
Intro

Rate & Comments Please!!!

Tap to rate this tab
# A B C D E F G H I J K L M N O P Q R S T U V W X Y Z