Song name
# A B C D E F G H I J K L M N O P Q R S T U V W X Y Z

Reel Big Fish - Victory Over Peter Bones tab


intro   main chords	standard tuning 

	Dmaj7		Cmaj7

then change to 
	G		Gm   (2x)

to solo w/PM
	B5	C5

first guitar solo
e-------------------|-----------------------------
B-7--7--7-7-7-------|------------8--------8\10/8--
G-------------7-6-5-|--5--7---4------4-3----------
D-------------------|-----------------------------
A-------------------|-----------------------------
E-------------------|-----------------------------

 ---------------------|------------------------------
 -12b-10--------------|------------------------------
 ---------12-11-7--7--|-7h9p7--------7-------7\9/7---
 ---------------------|-------9p7--------------------
 ---------------------|-----------9-----9-8----------
 ---------------------|------------------------------

then w/dist.  riff B

	D5	E5 F5 F#5

	G5	F#5 F5 E5

then w/clean guitar   riff C
  Dii			     Dsus
e------------------------|----------0--------3-----0-------
B------7-------8/7---7---|-------------3-------3------3----
G----7----7--------7---7-|--------2------2-------2---------
D-----------7------------|---------------------------------
A-5----------------------|-9/5-5---------------------------
E------------------------|---------------------------------

 ------------------------|----------------
 ------------------------|----------------
 -----------0---------0--|----------------
 ------------------------|------0---0-----
 -3h5p3--2------2--1-----|--0h2---2-------
 ------------------------|----------------

second guitar solo
(note: in the second solo, there are two guitars, 
 gtr.1 repeats the first solo, gtr.2 plays second part)

e-5--5--5-5-5-------|------------7--------6\8/6--
B-------------8-7-5-|--5--7---3------3-3---------
G-------------------|----------------------------
D-------------------|----------------------------
A-------------------|----------------------------
E-------------------|----------------------------

 -12b-10--------------|-5h7p5----------------10\12/10---
 ---------12-10-7--7--|-------8p7----7------------------
 ---------------------|---------------------------------
 ---------------------|-----------9---------------------
 ---------------------|-----------------9-8-------------
 ---------------------|---------------------------------

repeat riff B
repeat riff C
continue intro chords

end with  
	   Dsus2  (hold)


second solo can also be played by one guitar, i wrote it down for 
those who wish to play it, it gets tricky
e-5--5--5-5-5-------|------------7--------6\8/6---
B-7--7--7-7-7-8-7-5-|--5--7---3--8---3-3--8\10/8--
G-------------7-6-5-|--5--7---4------4-3----------
D-------------------|-----------------------------
A-------------------|-----------------------------
E-------------------|-----------------------------

 -12b-10--------------|----------------------------10h12p10---
 -12b-10--12-10-7--7--|---------------------7------12---------
 ---------12-11-7--7--|-14h16-14--12-11-----7-----------------
 ---------------------|-12--------12-12--9-----9-8------------
 ---------------------|------------------9-----9-8------------
 ---------------------|---------------------------------------

Tap to rate this tab
# A B C D E F G H I J K L M N O P Q R S T U V W X Y Z