Song name
# A B C D E F G H I J K L M N O P Q R S T U V W X Y Z

Reel Big Fish - Where Have You Been tab

Artist: Reel Big Fish
Song: Where have you been?
Album: Cheer Up!
Tabbed by: Ell-Boy and Jon-Boy


Intro x6

          Am                 C
e------0---------------------0--------------------------------|
B---------1-----1----------------1-------1--------------------|
G----2-------2------------0----------0------------------------|
D-------------------------------------------------------------|
A--0------------------3---------------------------------------|
E-------------------------------------------------------------|

         F                    G   
e-------1---------------------3-------------------------------|
B----------1-----1----------------3-------3-------------------|
G-----2-------2------------4----------4-----------------------|
D--3------------------3/5-------------------------------------|
A-------------------------------------------------------------|
E-------------------------------------------------------------|



Bridge x2

Guitar 1

     A         C        F        G    
e-------------------------------------------------------------|
B-------------------------------------------------------------|
G-----------5xx5xx--------------------------------------------|
D--7xx7xx---5xx5xx---3xx3xx---5xx5xx--------------------------|
A--7xx7xx---3xx3xx---3xx3xx---5xx5xx--------------------------|
E--5xx5xx------------1xx1xx---3xx3xx--------------------------|


Guitar 2

e-------------------------------------------------------------|
B------5-5----5-5-----3-3---3-3-------------------------------|
G--2-2------2-----0-0-----0--------5-5---5-5-------7-7---7-7--|
D--------------------------------3-----3-----3/5-5-----5------|
A-------------------------------------------------------------|
E-------------------------------------------------------------|



Intro x4



Chorus x4

     C         G       Em        F   
e-------------------------------------------------------------|
B-------------------------------------------------------------|
G--555555-----------------------------------------------------|
D--555555---555555---222222---333333--------------------------|
A--333333---555555---222222---333333--------------------------|
E-----------333333---000000---111111--------------------------|

      C        G        F       F
e-------------------------------------------------------------|
B-------------------------------------------------------------|
G--555555-----------------------------------------------------|
D--555555---555555---333333---333333--------------------------|
A--333333---555555---333333---333333--------------------------|
E-----------333333---111111---111111--------------------------|



Bridge x2


Intro x4


Chorus x4



Interlude

   A    C    F    G        A     C     F     G
e-------------------------------------------------------------|
B-------------------------------------------------------------|
G-------5x---------------------5555---------------------------| x2
D--7x---5x---3x---5x-----7777--5555--3333--5555---------------| 
A--7x---3x---3x---5x-----7777--3333--3333--5555---------------|  
E--5x--------1x---3x-----5555--------1111--3333---------------| 

      C         G        Em         F                A
e--------------------------------------------|----------------|
B--------------------------------------------|----------------|
G--5-5-5-5-----------------------------------|----------------| x2
D--5-5-5-5---5-5-5-5---2-2-2-2---3-3-3-3-----|-------7--------| then strum
A--3-3-3-3---5-5-5-5---2-2-2-2---3-3-3-3-----|-------7--------| chords twice
E------------3-3-3-3---0-0-0-0---1-1-1-1-----|-------5--------| end on A


Intro x4

Chorus x7 (end on the G)

Thanks, leave comments, we rock and you knows it.


Tap to rate this tab
# A B C D E F G H I J K L M N O P Q R S T U V W X Y Z