Song name
# A B C D E F G H I J K L M N O P Q R S T U V W X Y Z

Reel Big Fish - Where Have You Been Acoustic tab

Reel Big Fish
Where Have You Been?
The Best For The Rest of Us (Skacoustic)
Standard Tuning

Intro

   Am             C                   F                    G
e-------------------------------------------1--------------------3----------|
B------1-------1--------1-----------------------1-------------------3-------|
G--------2-----------0-----0-----0-------2----------2---------4--------4----|
D----2------2-----------------2-------3----------------3-3/5--------------5-|
A--0--------------3---------------------------------------------------------|
E---------------------------------------------------------------------------|
   Am             C                   F                    G
e-------------------------------------------1--------------------3----------|
B------1-------1--------1-----------------------1-------------------3-------|
G-------2-----------0-----0-----0-------2----------2---------4--------4-----|
D----2------2-----------------2-------3----------------3-3/5--------------5-|
A--0--------------3---------------------------------------------------------|
E---------------------------------------------------------------------------|
   Am             C                   F                    G
e-------------------------------------------1--------------------3----------|
B------1-------1--------1-----------------------1-------------------3-------|
G--------2-----------0-----0-----0-------2----------2---------4--------4----|
D----2------2-----------------2-------3----------------3-3/5--------------5-|
A--0--------------3---------------------------------------------------------|
E---------------------------------------------------------------------------|
   Am             C                   F
e------------------------------------------|
B------1-------1--------1------------------|
G--------2-----------0-----0-----0------2--|
D----2------2-----------------2--------3---|
A--0--------------3-------------------3----|
E------------------------------------------|

Fill

e----------------------------------------------|
b----9----9----9----9----5---5---7----7--------|
g-77---77---55---55---33---33--55--55----------|
d----------------------------------------------|
a----------------------------------------------|
e----------------------------------------------|

The Verse

Guitar 1
              Am             C                   F                    G
e------------------------------------------------------1---------------------|
B-----------------1-------1--------1-----------------------1-----------------|
G-------------------2-----------0-----0-----0-------2----------2---------4---|
D---------------2------2-----------------2-------3----------------3-3/5------|
A-------------0--------------3-----------------------------------------------|
E----------------------------------------------------------------------------|
                       Am
e--3----------------------------|
B----3------------------1-------|
G-------4---------------2-------|
D----------5------------2-------|
A-------------------------------|
E-------------------------------|


Guitar 1
   Am             C                   F                    G
e-------------------------------------------1--------------------3----------|
B------1-------1--------1-----------------------1-------------------3-------|
G--------2-----------0-----0-----0-------2----------2---------4--------4----|
D----2------2-----------------2-------3----------------3-3/5--------------5-|
A--0--------------3---------------------------------------------------------|
E---------------------------------------------------------------------------|
   Am             C                   F                    G
e-------------------------------------------1--------------------3----------|
B------1-------1--------1-----------------------1-------------------3-------|
G--------2-----------0-----0-----0-------2----------2---------4--------4----|
D----2------2-----------------2-------3----------------3-3/5--------------5-|
A--0--------------3---------------------------------------------------------|
E---------------------------------------------------------------------------|
   Am             C                   F                    G
e-------------------------------------------1--------------------3----------|
B------1-------1--------1-----------------------1-------------------3-------|
G--------2-----------0-----0-----0-------2----------2---------4--------4----|
D----2------2-----------------2-------3----------------3-3/5--------------5-|
A--0--------------3---------------------------------------------------------|
E---------------------------------------------------------------------------|

   Am             C                   F
e-------------------------------------------1---------------|
B------1-------1--------1-----------------------1-----------|
G--------2-----------0-----0-----0-------2----------2-------|
D----2------2-----------------2-------3----------------3-3--|
A--0--------------3-----------------------------------------|
E-----------------------------------------------------------|

e--------------------------|    e--3--------------------------|
B--------------------------|    B--3--------------------------|
G--------------------------|    G--0--x9----------------------|
D--5---5--5-5-5--5--5-5-5--| OR D--0--------------------------|
A--5---5--5-5-5--5--5-5-5--|    A--2--------------------------|
E--3---3--3-3-3--3--3-3-3--|    E--3--------------------------|

Chorus x2 (Play Powerchords or Open Chords)
     C        G         E         F          G         F      F
e---------------------------------------------------------------------------|
b---------------------------------------------------------------------------|
g-55555555------------------------------------------------------------------|
d-55555555-55555555--22222222--33333333--555555555-33333333-33333333--------|
a-33333333-55555555--22222222--33333333--333333335-33333333-33333333--------|
e----------33333333--00000000--11111111--333333333-11111111-11111111--------|

Interlude
Verse
Chorus x2


Bridge

   A                 G                  F                 G
 No Way           You Wish            I Dont           Need This

   C5                G5                F5                G5
e------------------------------------------------------------------------|
B------------------------------------------------------------------------|
G--5---5--5-5-5-5--------------------------------------------------------|
D--5---5--5-5-5-5----5---5--5-5-5-5----3---3--3-3-3-3----5---5--5-5-5-5--|
A--3---3--3-3-3-3----5---5--5-5-5-5----3---3--3-3-3-3----5---5--5-5-5-5--|
E--------------------3---3--3-3-3-3----1---1--1-1-1-1----3---3--3-3-3-3--|

   A                 G                  F                 G
 No Way           You Wish            I Dont           Need This

   C5                G5                F5                G5
e------------------------------------------------------------------------|
B------------------------------------------------------------------------|
G--5---5--5-5-5-5--------------------------------------------------------|
D--5---5--5-5-5-5----5---5--5-5-5-5----3---3--3-3-3-3----5---5--5-5-5-5--|
A--3---3--3-3-3-3----5---5--5-5-5-5----3---3--3-3-3-3----5---5--5-5-5-5--|
E--------------------3---3--3-3-3-3----1---1--1-1-1-1----3---3--3-3-3-3--|
   C5                              G5                              F5
e----------------------------------------------------------------------------|
B----------------------------------------------------------------------------|
G--5---5---5---5---5---5---5---5---------------------------------------------|
D--5---5---5---5---5---5---5---5---5---5---5---5---5---5---5---5---3--3-3--3-|
A--3---3---3---3---3---3---3---3---5---5---5---5---5---5---5---5---3--3-3--3-|
E----------------------------------3---3---3---3---3---3---3---3---1--1-1--1-|
             G5
e-------------------------------|
B-------------------------------|
G-------------------------------|
D--3-3-3-3-3-5-5--5-5--5-5-5-5--|
A--3-3-3-3-3-5-5--5-5--5-5-5-5--|
E--1-1-1-1-1-3-3--3-3--3-3-3-3--|
   C5                              G5                              F5
e----------------------------------------------------------------------------|
B----------------------------------------------------------------------------|
G--5---5---5---5---5---5---5---5---------------------------------------------|
D--5---5---5---5---5---5---5---5---5---5---5---5---5---5---5---5---3--3-3--3-|
A--3---3---3---3---3---3---3---3---5---5---5---5---5---5---5---5---3--3-3--3-|
E----------------------------------3---3---3---3---3---3---3---3---1--1-1--1-|
             G5
e-------------------------------|
B-------------------------------|
G-------------------------------|
D--3-3-3-3-3-5-5--5-5--5-5-5-5--|
A--3-3-3-3-3-5-5--5-5--5-5-5-5--|
E--1-1-1-1-1-3-3--3-3--3-3-3-3--|

Solo

E|---|--------|--------|--------|--------|------------------------|----------------------------|
B|---|--------|--------|--------|--------|------------------------|----------------------------|
G|---|--------|--------|--------|--------|-5----5---5----4--------|----------------------------|
D|---|--------|--------|--------|--------|--------------------7---|-5---5---5---5----5---5---5-|
A|---|--------|--------|--------|--------|------------------------|----------------------------|
E|---|--------|--------|--------|--------|------------------------|----------------------------|


E|------------------------------|---------------------------|------------------------|
B|------------------------------|---------------------------|------------------------|
G|------------------------------|---------------------------|-5----5---5----4----7---|
D|---------------------2--------|---------------------------|------------------------|
A|-3---5---5---5---5--------5---|-3---3---3---3----3----3---|------------------------|
E|------------------------------|---------------------------|------------------------|


E|---------------------------|---------------------------------|---------------------------------|
B|---------------------------|---------------------------------|---------------------------------|
G|---------------------------|-5---7---7---7---7---9---9---9---|-9---12--12--12--12--14--14--14--|
D|-5---5---5---5----5----5---|---------------------------------|---------------------------------|
A|---------------------------|---------------------------------|---------------------------------|
E|---------------------------|---------------------------------|---------------------------------|

Verse
              Am             C                   F                    G
e------------------------------------------------------1---------------------|
B-----------------1-------1--------1-----------------------1-----------------|
G-------------------2-----------0-----0-----0-------2----------2---------4---|
D--------------2------2-----------------2-------3----------------3-3/5-------|
A------------0--------------3------------------------------------------------|
E----------------------------------------------------------------------------|

e--3----------|
B----3--------|
G-------4-----|
D----------5--|
A-------------|
E-------------|

   Am             C                   F                    G
e-------------------------------------------1--------------------3----------|
B------1-------1--------1-----------------------1-------------------3-------|
G--------2-----------0-----0-----0-------2----------2---------4--------4----|
D----2------2-----------------2-------3----------------3-3/5--------------5-|
A--0--------------3---------------------------------------------------------|
E---------------------------------------------------------------------------|
   Am             C                   F                    G
e-------------------------------------------1--------------------3----------|
B-----1-------1--------1-----------------------1-------------------3--------|
G--------2-----------0-----0-----0-------2----------2---------4--------4----|
D----2------2-----------------2-------3----------------3-3/5--------------5-|
A--0--------------3---------------------------------------------------------|
E---------------------------------------------------------------------------|
   Am             C                   F                    G
e-------------------------------------------1--------------------3----------|
B------1-------1--------1-----------------------1-------------------3-------|
G--------2-----------0-----0-----0-------2----------2---------4--------4----|
D----2------2-----------------2-------3----------------3-3/5--------------5-|
A--0--------------3---------------------------------------------------------|
E---------------------------------------------------------------------------|
   Am             C                 F5
e-----------------------------------------------|
B------1-------1--------1-----------------------|
G--------2-----------0-----0-----0--------------|
D----2------2-----------------2-----3-x---------|
A--0--------------3-----------------3-x---------|
E-----------------------------------1-x---------|

Chorus x2

     C        G         E         F          G         F      F
e---------------------------------------------------------------------------|
b---------------------------------------------------------------------------|
g-55555555------------------------------------------------------------------|
d-55555555-55555555--22222222--33333333--555555555-33333333-33333333--------|
a-33333333-55555555--22222222--33333333--333333335-33333333-33333333--------|
e----------33333333--00000000--11111111--333333333-11111111-11111111--------|


Outro

     C        G         E         F          G         F      F
e---------------------------------------------------------------------------|
b---------------------------------------------------------------------------|
g-55555555------------------------------------------------------------------|
d-55555555-55555555--22222222--33333333--555555555-33333333-33333333--------|
a-33333333-55555555--22222222--33333333--333333335-33333333-33333333--------|
e----------33333333--00000000--11111111--333333333-11111111-11111111--------|
     C        G         E         F          G         F      F
e---------------------------------------------------------------------------|
b---------------------------------------------------------------------------|
g-55555555------------------------------------------------------------------|
d-55555555-55555555--22222222--33333333--555555555-33333333-33333333--------|
a-33333333-55555555--22222222--33333333--333333335-33333333-33333333--------|
e----------33333333--00000000--11111111--333333333-11111111-11111111--------|
     C        G         E         F          G         F      F
e---------------------------------------------------------------------------|
b---------------------------------------------------------------------------|
g-55555555------------------------------------------------------------------|
d-55555555-55555555--22222222--33333333--555555555-33333333-33333333--------|
a-33333333-55555555--22222222--33333333--333333335-33333333-33333333--------|
e----------33333333--00000000--11111111--333333333-11111111-11111111--------|
     C        G         E         F          G         F      F
e---------------------------------------------------------------------------|
b---------------------------------------------------------------------------|
g-55555555------------------------------------------------------------------|
d-55555555-55555555--22222222--33333333--555555555-33333333-33333333--------|
a-33333333-55555555--22222222--33333333--333333335-33333333-33333333--------|
e----------33333333--00000000--11111111--333333333-11111111-11111111--------|
     C        G         E         F          G         F      F
e---------------------------------------------------------------------------|
b---------------------------------------------------------------------------|
g-55555555------------------------------------------------------------------|
d-55555555-55555555--22222222--33333333--555555555-33333333-33333333--------|
a-33333333-55555555--22222222--33333333--333333335-33333333-33333333--------|
e----------33333333--00000000--11111111--333333333-11111111-11111111--------|
     C        G         E         F          G         F      F
e---------------------------------------------------------------------------|
b---------------------------------------------------------------------------|
g-55555555------------------------------------------------------------------|
d-55555555-55555555--22222222--33333333--555555555-33333333-33333333--------|
a-33333333-55555555--22222222--33333333--333333335-33333333-33333333--------|
e----------33333333--00000000--11111111--333333333-11111111-11111111--------|
     C        G         E         F          G         F      F
e---------------------------------------------------------------------------|
b---------------------------------------------------------------------------|
g-55555555------------------------------------------------------------------|
d-55555555-55555555--22222222--33333333--555555555-33333333-33333333--------|
a-33333333-55555555--22222222--33333333--333333335-33333333-33333333--------|
e----------33333333--00000000--11111111--333333333-11111111-11111111--------|

End on F Chord!
Tap to rate this tab
 
# A B C D E F G H I J K L M N O P Q R S T U V W X Y Z